Oops, an error
Loading. Please wait.
We have an official Time Is Running Out tab made by UG professional guitarists. Check out the tab »
×
3,137 views 1 this week
4 commentsread comments
1 2 3 4 5
x 3
add to favorites
×
Save as Personal and add changes to this tab that will be seen only by you. Learn more ›
×
You can save this tab as Personal to edit and correct it or add notes. All changes will be seen only by you. Learn more »
launch autoscroll
font size
0
reset
how to read this tab
guitar tuner
backing track
0:00
0:00
edit
Autoscroll
slow
fast
+/-
esc
set tempo
stop
Time Is Running Out-Papa Roach
Tuning-drop D (DADGBe)
Tab by Cameron Shawcross

This is my second tab, first on UG, and HOLY CRAP!  This baby is accurate!
You may have to listen to the song to get the timing down
Feel free to comment-petethepirate13@aol.com

Intro
|---------|--------|
|---------|--------|
|10-------|10---12-|   play first part 3 times
|10x8-7---|10x8-12-|   let last chord ring
|8----7-x8|8----10-|
|-----7---|--------|

Chorus (just riff, no words yet)
|------------------------------------------------------------|
|------------------------------------------------------------|
|------------------------------------------------------------|
|------------------------------------------------------------|
|------------------------------------------------------------|
|3-3-3-3-3-3-10-10-10-10-10-10-10-5-5-5-5-5-5-7-7-7-7-7-7-7-7|

|------------------------------------------------------------|
|------------------------------------------------------------|
|------------------------------------------------------------|
|------------------------------------------------------------|
|------------------------------------------------------------|
|3-3-3-3-3-3-10-10-10-10-10-10-10-5-5-5-5-5-5-7-7-7-7-5-5-5-5|


Verse
|--------------------------------|-------------------|
|--------------------------------|-------------------|
|--------------------------------|-------------------|  repeat first time 3
|5-5-5--5-5-5-5----7-7-7--7-7-7-7|5-5-5--5-5-5-5----7|  let last chord ring
|5-5-5--5-5-5-5----7-7-7--7-7-7-7|5-5-5--5-5-5-5----7|
|5-5-5--5-5-5-5----7-7-7--7-7-7-7|5-5-5--5-5-5-5----7|


Chorus (play through twice)
|--------------------------------------------------------------|
|--------------------------------------------------------------|
|--------------------------------------------------------------|
|--------------------------------------------------------------|
|--------------------------------------------------------------|
|3-3-3-3-3-3-10-10-10-10-10-10-10-5-5-5-5-5-5-7-7-7-7-7-7-7-7-7|

|--------------------------------------------------------------|
|--------------------------------------------------------------|
|--------------------------------------------------------------|
|--------------------------------------------------------------|
|--------------------------------------------------------------|
|3-3-3-3-3-3-10-10-10-10-10-10-10-5-5-5-5-5-5-7-7-7-7-7-5-5-5-5|

Verse
|--------------------------------|-------------------|
|--------------------------------|-------------------|
|--------------------------------|-------------------|  repeat first time 3
|5-5-5--5-5-5-5----7-7-7--7-7-7-7|5-5-5--5-5-5-5----7|  let last chord ring
|5-5-5--5-5-5-5----7-7-7--7-7-7-7|5-5-5--5-5-5-5----7|
|5-5-5--5-5-5-5----7-7-7--7-7-7-7|5-5-5--5-5-5-5----7|

Chorus (play through twice)
|--------------------------------------------------------------|
|--------------------------------------------------------------|
|--------------------------------------------------------------|
|--------------------------------------------------------------|
|--------------------------------------------------------------|
|3-3-3-3-3-3-10-10-10-10-10-10-10-5-5-5-5-5-5-7-7-7-7-7-7-7-7-7|

|--------------------------------------------------------------|
|--------------------------------------------------------------|
|--------------------------------------------------------------|
|--------------------------------------------------------------|
|--------------------------------------------------------------|
|3-3-3-3-3-3-10-10-10-10-10-10-10-5-5-5-5-5-5-7-7-7-7-7-5-5-5-5|


Mini-solo
|----------------|
|----------------|
|10~-9-10-9-7-10~|
|----------------|
|----------------|
|----------------|

Intro (whoa, whoa—whoa, whoa--yeah, yeah--yeah, yeah)
|---------|--------|
|---------|--------|
|10-------|10---12-|   play first part 3 times
|10x8-7---|10x8-12-|   let last chord ring
|8----7-x8|8----10-|
|-----7---|--------|

Chorus (play through twice)
|------------------------------------------------------------|
|------------------------------------------------------------|
|------------------------------------------------------------|
|------------------------------------------------------------|
|------------------------------------------------------------|
|3-3-3-3-3-3-10-10-10-10-10-10-10-5-5-5-5-5-5-7-7-7-7-7-7-7-7|

|------------------------------------------------------------|
|------------------------------------------------------------|
|------------------------------------------------------------|
|------------------------------------------------------------|
|------------------------------------------------------------|
|3-3-3-3-3-3-10-10-10-10-10-10-10-5-5-5-5-5-5-7-7-7-7-5-5-5-5|

Outro
|-------------------------------|----------------------|
|-------------------------------|----------------------|
|-------------------------------|----------------------|    repeat first part three times
|3-3-3-3-3-3-3-3-7-7-7-7-5-5-5-5|3-3-3-3-3-3-3-3-5----7|    let last chord ring
|3-3-3-3-3-3-3-3-7-7-7-7-5-5-5-5|3-3-3-3-3-3-3-3-5----7|
|3-3-3-3-3-3-3-3-7-7-7-7-5-5-5-5|3-3-3-3-3-3-3-3-5----7|




            
            
Suggest correction
Creating personal tab
Creating personal tab
You can edit any tab online and save it as your Personal.

You can edit, replace or remove any tab part or add personal notes – all changes will be seen only by you.

Personal tabs can be accessed anytime from any device, even offline.
Learn more »
Give kudos to tab author, rate the tab!
1 2 3 4 5
comments
print report bad tab
4 comments total. Showing first comments.
0 reply
landrun 58 Jan 24, 2007 11:37 AM

aight tab, doubt the chorus is played on 1 string, more likely power chords? (think you may have the bass guitar right for the it thou. lol)still no lead for the chorus either. good effort.

+1 reply
apollo66 10 Mar 19, 2007 12:36 PM

agreed, chorus is definitely more than one string, version 1 has the most accurate chorus of the three

kindof ironic cause the tabber of this one commented that the other version was wrong...

0 reply
apollo66 10 Mar 19, 2007 01:02 PM

actually I retract my first part...definately not one string but version one is off

apparently I'm going tone deaf in my old age o.O

guest
You may want to rate the tab now too:
select rating
Wanna post a correction for this tab? Suggest correction