Oops, an error
Loading. Please wait.
We have an official Time Is Running Out tab made by UG professional guitarists. Check out the tab »
×
14,143 views 1 this week
6 commentsread comments
1 2 3 4 5
x 6
add to favorites
×
Save as Personal and add changes to this tab that will be seen only by you. Learn more ›
×
You can save this tab as Personal to edit and correct it or add notes. All changes will be seen only by you. Learn more »
launch autoscroll
font size
0
reset
how to read this tab
guitar tuner
backing track
0:00
0:00
edit
Autoscroll
slow
fast
+/-
esc
set tempo
stop
-------------------------------------------------------------------------------
                             Time Is Running Out - Papa Roach
-------------------------------------------------------------------------------
Tabbed by: J B/1
Email:jamie.beeson@hotmail.co.uk

Tuning:D A D G B e
Drop D
Intro
e|---------------------------------------------------------------------------|
B|---------------------------------------------------------------------------|
G|-1010101010101010101010101010101010--------------------121212121212121212--|
D|-1010101010101010101010101010101010--101010101010101010101010101010101010--|
A|-8-8-8-8-8-8-8-8-8-8-8-8-8-8-8-8-8---7-7-7-7-7-7-7-7-7-7-7-7-7-7-7-7-7-7---|
D|-------------------------------------7-7-7-7-7-7-7-7-7-7-7-7-7-7-7-7-7-7---|  x2

e|---------------------------------------------------------------------------|
B|---------------------------------------------------------------------------|
G|-1010101010101010101010101010101010----------------------------------------|
D|-1010101010101010101010101010101010--101010101010101010101010101010101010--|
A|-8-8-8-8-8-8-8-8-8-8-8-8-8-8-8-8-8---7-7-7-7-7-7-7-7-7-7-7-7-7-7-7-7-7-7---|
D|-------------------------------------7-7-7-7-7-7-7-7-7-7-7-7-7-7-7-7-7-7---|

e|---------------------------------------------------------------------------|
B|---------------------------------------------------------------------------|
G|-1010101010101010101010101010101010--121212121212--------------------------|
D|-1010101010101010101010101010101010--121212121212--------------------------|
A|-8-8-8-8-8-8-8-8-8-8-8-8-8-8-8-8-8---101010101010--------------------------|
D|---------------------------------------------------------------------------|

e|---------------------------------------------------------------------------|
B|---------------------------------------------------------------------------|
G|-1212121212121212----------------------------------------------------------|
D|-1010101010101010-1212121212121212--5555555555--1010101010101010-----------|
A|-8-8-8-8-8-8-8-8--1010101010101010--5555555555--7-7-7-7-7-7-7-7------------|
D|------------------1010101010101010--5555555555--7-7-7-7-7-7-7-7------------|

e|---------------------------------------------------------------------------|
B|---------------------------------------------------------------------------|
G|-1212121212121212----------------------------------------------------------|
D|-1010101010101010-1212121212121212-5555555555-777777--555555---------------|
A|-8-8-8-8-8-8-8-8--1010101010101010-5555555555-777777--555555---------------|
D|------------------1010101010101010-5555555555-777777--555555---------------|

Verse                 x3
e|-----------------------|---------------------------------------------------|
B|-----------------------|---------------------------------------------------|
G|-----------------------|---------------------------------------------------|
D|-3333333-----7777777---|--3333333---5~-hold--------------------------------|
A|-3333333-----7777777---|--3333333---5~-hold--------------------------------|
D|-3333333-----7777777---|--3333333---5~-hold--------------------------------|   

Chorus
e|---------------------------------------------------------------------------|
B|---------------------------------------------------------------------------|
G|-1212121212121212----------------------------------------------------------|
D|-1010101010101010-1212121212121212--5555555555--1010101010101010-----------|
A|-8-8-8-8-8-8-8-8--1010101010101010--5555555555--7-7-7-7-7-7-7-7------------|
D|------------------1010101010101010--5555555555--7-7-7-7-7-7-7-7------------|  x3

e|---------------------------------------------------------------------------|
B|---------------------------------------------------------------------------|
G|-1212121212121212----------------------------------------------------------|
D|-1010101010101010-1212121212121212--5555555555--777777-555555--------------|
A|-8-8-8-8-8-8-8-8--1010101010101010--5555555555--777777-555555--------------|
D|------------------1010101010101010--5555555555--777777-555555--------------|


Verse 2                x3
e|-----------------------|---------------------------------------------------|
B|-----------------------|---------------------------------------------------|
G|-----------------------|---------------------------------------------------|
D|-3333333-----7777777---|--3333333---5~-hold--------------------------------|
A|-3333333-----7777777---|--3333333---5~-hold--------------------------------|
D|-3333333-----7777777---|--3333333---5~-hold--------------------------------|   

Chorus 2
e|---------------------------------------------------------------------------|
B|---------------------------------------------------------------------------|
G|-1212121212121212----------------------------------------------------------|
D|-1010101010101010-1212121212121212--5555555555--1010101010101010-----------|
A|-8-8-8-8-8-8-8-8--1010101010101010--5555555555--7-7-7-7-7-7-7-7------------|
D|------------------1010101010101010--5555555555--7-7-7-7-7-7-7-7------------|  x3

e|---------------------------------------------------------------------------|
B|---------------------------------------------------------------------------|
G|-1212121212121212----------------------------------------------------------|
D|-1010101010101010-1212121212121212--5555555555--777777---------------------|
A|-8-8-8-8-8-8-8-8--1010101010101010--5555555555--777777---------------------|
D|------------------1010101010101010--5555555555--777777---------------------|

Bridge
e|---------------------------------------------------------------------------|
B|---------------------------------------------------------------------------|
G|-1010101010101010101010101010101010--------------------121212121212121212--|
D|-1010101010101010101010101010101010--101010101010101010101010101010101010--|
A|-8-8-8-8-8-8-8-8-8-8-8-8-8-8-8-8-8---7-7-7-7-7-7-7-7-7-7-7-7-7-7-7-7-7-7---|
D|-------------------------------------7-7-7-7-7-7-7-7-7-7-7-7-7-7-7-7-7-7---|  x5

e|---------------------------------------------------------------------------|
B|---------------------------------------------------------------------------|
G|-9h10p9--------------------------------------------------------------------|
D|--------12-10~-------------------------------------------------------------|
A|---------------------------------------------------------------------------|
D|---------------------------------------------------------------------------|
Little Extra Bit I Thought I'd Add In!

e|---------------------------------------------------------------------------|
B|---------------------------------------------------------------------------|
G|-1010101010101010101010101010101010--121212121212--------------------------|
D|-1010101010101010101010101010101010--121212121212--------------------------|
A|-8-8-8-8-8-8-8-8-8-8-8-8-8-8-8-8-8---101010101010--------------------------|
D|---------------------------------------------------------------------------|

Chorus 3
e|---------------------------------------------------------------------------|
B|---------------------------------------------------------------------------|
G|-1212121212121212----------------------------------------------------------|
D|-1010101010101010-1212121212121212--5555555555--1010101010101010-----------|
A|-8-8-8-8-8-8-8-8--1010101010101010--5555555555--7-7-7-7-7-7-7-7------------|
D|------------------1010101010101010--5555555555--7-7-7-7-7-7-7-7------------|  x3

e|---------------------------------------------------------------------------|
B|---------------------------------------------------------------------------|
G|-1212121212121212----------------------------------------------------------|
D|-1010101010101010-1212121212121212--5555555555--77777777777777777----------|
A|-8-8-8-8-8-8-8-8--1010101010101010--5555555555--77777777777777777----------|
D|------------------1010101010101010--5555555555--77777777777777777----------|


Ending
                        x3
e|----------------------------------|-------------12~~~~~--------------------|
B|----------------------------------|----------------------------------------|
G|----------------------------------|----------------------------------------|
D|-3333333-----7777777-----5555555--|--3333/-5/-7----------------------------|
A|-3333333-----7777777-----5555555--|--3333/-5/-7----------------------------|
D|-3333333-----7777777-----5555555--|--3333/-5/-7----------------------------|   


| /  slide up
| \  slide down
| h  hammer-on
| p  pull-off
| ~  vibrato
| +  harmonic
| x  Mute note
===============================================================================

            
            
Suggest correction
Creating personal tab
Creating personal tab
You can edit any tab online and save it as your Personal.

You can edit, replace or remove any tab part or add personal notes – all changes will be seen only by you.

Personal tabs can be accessed anytime from any device, even offline.
Learn more »
comments
print report bad tab
6 comments total. Showing first comments.
+1 reply
smirnoff_black 10 Oct 14, 2007 10:58 AM

Yaaay, someone got the chorus right.

0 reply
charlie101m 10 Feb 19, 2009 03:07 AM

hi, is there any specific strumming pattern for this song, little confused. hard for me to hear 8 chord strums in the chorus, when i onli hit six and it sounds right.

thanks

0 reply
J B/1 74 Apr 02, 2009 06:58 AM

Yer charlie101m my mistake yer ur right. I wasnt paying as much attention to the strumming pattern.

guest
You may want to rate the tab now too:
select rating
Wanna post a correction for this tab? Suggest correction