Oops, an error
Loading. Please wait.

To Be Loved bass

version 1
version 1

Whole song

Interactive

8,188 views 3 this week
3 commentsread comments
1 2 3 4 5
x 3
add to favorites
×
Save as Personal and add changes to this tab that will be seen only by you. Learn more ›
×
You can save this tab as Personal to edit and correct it or add notes. All changes will be seen only by you. Learn more »
launch autoscroll
font size
0
reset
guitar tuner
edit
Autoscroll
slow
fast
+/-
esc
set tempo
stop
Author
Difficulty
Song: To Be Loved
Band: Papa Roach
Album: The Paramour Sessions

Tuning: Drop D ( D A D G)

Intro:
|--------------------|
|--------------------|
|--------------- x12-|
|-0--5-0--3--5-3-----|

|--------------|
|--------------|
|--------------|
|-0--5-0--3--5-|

Chorus:
|---------------------------------|
|---------------------------------|
|-3-3-3-3-3-3-3-3-3-3-3-3-3-3-3-3-|
|---------------------------------|

|---------------------------------|
|---------------------------------|
|-1-1-1-1-1-1-1-1-1-1-1-1-1-1-1-1-|
|---------------------------------|

|---------------------------------|
|---------------------------------|
|---------------------------------|
|-5-5-5-5-5-5-5-5-5-5-5-5-5-5-5-5-|

|---------------------------------|
|---------------------------------|
|---------------------------------|
|-3-3-3-3-3-3-3-3-3-3-3-3-3-3-3-3-|

|---------------------------------|
|---------------------------------|
|-3-3-3-3-3-3-3-3-3-3-3-3-3-3-3-3-|
|---------------------------------|

|---------------------------------|
|---------------------------------|
|-1-1-1-1-1-1-1-1-1-1-1-1-1-1-1-1-|
|---------------------------------|

|---------------------------------|
|---------------------------------|
|---------------------------------|
|-3-3-3-3-3-3-3-3-3-3-3-3-3-3-3-3-|

|---------------------------------|
|---------------------------------|
|---------------------------------|
|-1-1-1-1-1-1-1-1-3-3-3-3-3-3-3-3-|

Verse 1:

|--
|--
|-3
|--
Don't play for 10 seconds

|----------------------------------------------------|
|----------------------------------------------------|
|----------------------------------------------------|
|-10--10--10-10--10--10--10-10--6--6--6-6--6--6--6-6-|

|--------------------------------------|
|--------------------------------------|
|--------------------------------------|
|-3--3--3-3--3--3--3-3--1------0-------|

Repeat Chorus

Verse 2:
(Same as verse 1)

Repeat Chorus twice

Then just singing and drums for 10 seconds


Final Chorus:

|---------------------------------|
|---------------------------------|
|-3-3-3-3-3-3-3-3-3-3-3-3-3-3-3-3-|
|---------------------------------|

|---------------------------------|
|---------------------------------|
|-1-1-1-1-1-1-1-1-1-1-1-1-1-1-1-1-|
|---------------------------------|

|---------------------------------|
|---------------------------------|
|---------------------------------|
|-3-3-3-3-3-3-3-3-3-3-3-3-3-3-3-3-|

|---------------------------------|
|---------------------------------|
|---------------------------------|
|-1-1-1-1-1-1-1-1-3-3-3-3-3-3-3-3-|

|---------------------------------|
|---------------------------------|
|-3-3-3-3-3-3-3-3-3-3-3-3-3-3-3-3-|
|---------------------------------|

|---------------------------------|
|---------------------------------|
|-1-1-1-1-1-1-1-1-1-1-1-1-1-1-1-1-|
|---------------------------------|

|---------------------------------|
|---------------------------------|
|---------------------------------|
|-5-5-5-5-5-5-5-5-5-5-5-5-5-5-5-5-|

|-----------------|
|-----------------|
|-----------------|
|-3-3-3-3-3-3-3-3-|
Suggest correction
Creating personal tab
Creating personal tab
You can edit any tab online and save it as your Personal.

You can edit, replace or remove any tab part or add personal notes – all changes will be seen only by you.

Personal tabs can be accessed anytime from any device, even offline.
Learn more »
Give kudos to tab author, rate the tab!
1 2 3 4 5
comments
print report bad tab
3 comments total.
0 reply
nml6493 306 Apr 13, 2007 06:46 PM

The Intro doesnt sound completely right and I think this song is in drop C tuning (C G C F) just like the guitar but i could be wrong

0 reply
nml6493 306 Apr 13, 2007 06:48 PM

sorry man i think you actually tabbed this correctly but put the wrong tuning it should be Drop C

0 reply
JackA$$daba$$ 10 Jul 20, 2008 08:22 AM

i think it sounds ok when tuned into drop c not drop d but even then there are still some parts that are slightly off

guest
You may want to rate the tab now too:
select rating
Wanna post a correction for this tab? Suggest correction