Oops, an error
Loading. Please wait.

To Be Loved bass

version 2
version 2

Whole song

Interactive

17,190 views 9 this week
8 commentsread comments
1 2 3 4 5
x 8
add to favorites
×
Save as Personal and add changes to this tab that will be seen only by you. Learn more ›
×
You can save this tab as Personal to edit and correct it or add notes. All changes will be seen only by you. Learn more »
launch autoscroll
font size
0
reset
guitar tuner
edit
Autoscroll
slow
fast
+/-
esc
set tempo
stop
Author
-------------------------------------------------------------------------------
			     To Be Loved - Papa Roach
-------------------------------------------------------------------------------

Tabbed By : rahsan

Tuning: C, G, C, F

Probably played on a 5 string, but tabbed this way cause I have a 4 in this tuning

intro:
F|-------------|
C|-------------|
G|-------------| x 10 		rest for 2 measures
C|-0-7-0-3-5-3-|

chorus:
G|---------|---------|---------|---------|---------|---------|---------|---------|
D|---------|---------|---------|---------|---------|---------|---------|---------|
A|---------|-3-3-3-3-|-1-1-1-1-|---------|---------|-1-1-1-1-|---------|---------|
E|-0-0-0-0-|---------|---------|-5-5-5-5-|-0-0-0-0-|---------|-5-5-5-5-|-3-3-1-1-|

verse:
G|--------|   
D|--------|    
A|-5\-----|   rest for 4 measures
E|--------|

G|-----------------|---------------|--------------|-------------|
D|-----------------|---------------|--------------|-------------|
A|-5--5-5-5--0-5-0-|-1--1-1-1--1-1-|--------------|-------------|
C|-----------------|---------------|-5--5-5-5--5--|--3--3--1--1-|


repeat chorus x1

repeat verse  x1

repeat chorus x1


G|---------|---------|---------|---------|---------|---------|---------|---------|
D|---------|---------|---------|---------|---------|---------|---------|---------|
A|-5-5-5-5-|-3-3-3-3-|-1-1-1-1-|---------|-5-5-5-5-|-1-1-1-1-|---------|---------|
E|---------|---------|---------|-5-5-5-5-|---------|---------|-5-5-5-5-|-3-3-1-1-|
                                    ^
	  			some improv in here
rest for 4 measures

outro:
G|---------|---------|---------|---------|---------|---------|---------|---------|
D|---------|---------|---------|---------|---------|---------|---------|---------|
A|---------|-1-1-1-1-|---------|---------|-5-5-5-5-|-3-3-3-3-|-1-1-1-1-|---------|
E|-0-0-0-0-|---------|-5-5-5-5-|-3-3-1-1-|---------|---------|---------|-5-5-----|



| /  slide up
| \  slide down
| h  hammer-on
| p  pull-off
| ~  vibrato
| +  harmonic
| x  Mute note
===============================================================================

            
            
Suggest correction
Creating personal tab
Creating personal tab
You can edit any tab online and save it as your Personal.

You can edit, replace or remove any tab part or add personal notes – all changes will be seen only by you.

Personal tabs can be accessed anytime from any device, even offline.
Learn more »
comments
print report bad tab
8 comments total. Showing first comments.
0 reply
hellbassist1 1,535 Jan 25, 2007 07:14 AM

I don't get it are we supposed to retune our bass in the middle of the song to get the different tunnings you have?

0 reply
rahsan 130 Jan 26, 2007 08:11 AM

I guess I wasn't paying attention. It's supposed to be C, G, C , F through the whole song. I'll get it fixed when I have some time.

0 reply
nml6493 306 Apr 13, 2007 06:47 PM

good tab, it should be in Drop C (C G C F) along with the guitar tuning good job

guest
You may want to rate the tab now too:
select rating
Wanna post a correction for this tab? Suggest correction