Oops, an error
Loading. Please wait.

What Do You Do bass

version 1
version 1

Whole song

Interactive

648 views 3 this week
no commentswrite comment
1 2 3 4 5
3 more votes to show rating
add to favorites
×
Save as Personal and add changes to this tab that will be seen only by you. Learn more ›
×
You can save this tab as Personal to edit and correct it or add notes. All changes will be seen only by you. Learn more »
launch autoscroll
font size
0
reset
guitar tuner
edit
Autoscroll
slow
fast
+/-
esc
set tempo
stop
This is probably the easiest song to play on the album, sounds cool though.
Tuning is Drop D, otherwise the tab is pretty straight forward.

Intro (x4)
|-7-7-7-7-7-7-7-7-7-7-7-7-7-7-7-7-|
|---------------------------------|
|---------------------------------|
|---------------------------------|
Verse
|-------------------------------------|    |-------------------|
|-------------------------------------|    |-------------------|
|-------------------------------------| x2 |-------------------|
|-0~-------0~-------5~-------5~-------|    |-7~-------5~-------|
Chorus
|---------------------------------------------------------|
|---------------------------------------------------------|
|---------------------------------------------------------|
|-0---0---0---0---7---7---7---7---9--9--7--7--5--5--5--5--|
Repeat verse, variation at 1:50
|-----------------------|
|-----------------------|
|-----------------------|
|-7~----7-9-7--5~-------|
Repeat Chorus x2
Bridge (x2)
|--------------------------------------------------------------------------|
|--------------------------------------------------------------------------|
|--------------------------------------------------------------------------|
|-/8---8---8---8---8---8---8---8---10---10---10---10---10---10---10---10---|

|-------------------------------------------------------------------10-12-|
|-------------------------------------------------------------10-12-------|
|-------------------------------------------------------10-12-------------|
|-12-12-12-12-12-12-12-12-12-12-12-12-12-12-12-12-10-12-------------------|
Outro
|-----------------------------------------------------------------|
|-----------------------------------------------------------------|
|-----------------------------------------------------------------|
|-0---0---0---0---0---0---0---0---7---7---7---7---7---7---7---7---|
All twelves in close part, not ones and twos
|---------------------------------------------------------------------|
|-----------------8---8---8---8---10---10---10---10---1212121212121212|
|---------------------------------------------------------------------|
|-8---8---8---8-------------------------------------------------------|

|-----------------------------------------------------------------|
|-----------------------------------------------------------------|
|-----------------------------------------------------------------|
|-0---0---0---0---0---0---0---0---7---7---7---7---7---7---7---7---|

|-------------------------------------------------------------------------|
|-------------------------------------------------------------------------|
|-------------------------------------------------------------------------|
|-8---8---8---8---8---8---8---8---10---10---10---10---10---10---10---10---|
End on:
|------------|
|------------|
|------------|
|-12~--------|      Awesome.
Suggest correction
Creating personal tab
Creating personal tab
You can edit any tab online and save it as your Personal.

You can edit, replace or remove any tab part or add personal notes – all changes will be seen only by you.

Personal tabs can be accessed anytime from any device, even offline.
Learn more »
Give kudos to tab author, rate the tab!
1 2 3 4 5
comments
print report bad tab
guest
You may want to rate the tab now too:
select rating
Wanna post a correction for this tab? Suggest correction