Oops, an error
Loading. Please wait.

Wish You Never Met Me tab

1,048 views 24 this week
no commentswrite comment
1 2 3 4 5
x 3
add to favorites
×
Save as Personal and add changes to this tab that will be seen only by you. Learn more ›
×
You can save this tab as Personal to edit and correct it or add notes. All changes will be seen only by you. Learn more »
launch autoscroll
font size
0
reset
how to read this tab
guitar tuner
edit
Autoscroll
slow
fast
+/-
esc
set tempo
stop
-------------------------------------------------------------------------------
                             Wish You Never Met Me - Papa Roach
-------------------------------------------------------------------------------
Tabbed by:Randy Nguyen
This is my first tab so I'm sorry if it's hard to follow
Requested by Ghostx831 on YouTube
Here is my cover I've made of this song https://www.youtube.com/watch?v=rOnXiBB6oxE
I did mess up the bridge in the video but here it is correct

Tuning:Drop D
   
e|-----------------------------------------------------------------------------------------------------------|
B|-----------------------------------------------------------------------------------------------------------|
G|--------------444444------------------444444------------------444444666666------------999999-6-\4~----------|
D|--444444777777xxxxxx777777444444777777xxxxxx666666444444777777xxxxxxxxxxxx444444777777xxxxxx---------------|
A|--xxxxxxxxxxxx------xxxxxxxxxxxxxxxxxx------xxxxxxxxxxxxxxxxxx------------xxxxxxxxxxxx---------------------|
D|-----------------------------------------------------------------------------------------------------------|
                    
e|-----------------------------------------------------------------------------------------------------------|
B|----2----5----9------[--5-]-------[12-12-12-12-12-12-14-14-14-14-14-14]------------------------------------|
G|---2-2--4-4--6-6--X2-[-4-4]-------[x--x--x--x--x--x--x--x--x--x--x--x-]------------------------------------|
D|--4----6----7--------[6---]-------[9--9--9--9--9--9--11-11-11-11-11-11]------------------------------------|
A|----------------After first time---------------------------------------------------------------------------|
D|-----------------------------------------------------------------------------------------------------------|

e|-----------------------------------------------------------------------------------------------------------|
B|---Do this twice-------------------------------------------------------------------------------------------|
G|--2---------2------1st time----2nd time--------------------------------------------------------------------|
D|--2-4-2-4---2-4-2-4-[/5-2]-----[6-4]-----------------------------------------------------------------------|
A|--0-4-2-4---0-4-2-4-[/5-2]-----[4-2]-----------------------------------------------------------------------|
D|----4-2-4-----4-2-4-[/5-2]---------------------------------------------------------------------------------|

e|------------------1st time-----2nd time--------------------------------------------------------------------|
B|--7----9----10---[9----5---]--[12---9-------]--------------------------------------------------------------|
G|--x-x8-x-x8-x-x8-[x-x4-x-x4]--[x-x4-x-x4----]-----Now repeat the beginning to here again-------------------|
D|--4----6----7----[6----2---]--[9----6----4\-]--------------------------------------------------------------|
A|------------------------------[----------4\-]--------------------------------------------------------------|
D|------------------------------[----------4\-]--------------------------------------------------------------|

e|-----------------------------------------------------------------------------------------------------------|
B|-----------------------------------------------------------------------------------------------------------|
G|------------------------------------------666666-x2-999999-x2----------------------------------------------|
D|--444444-x4-666666-x4-777777-x2-999999-x2-xxxxxx----xxxxxx-------------------------------------------------|
A|--xxxxxx----xxxxxx----xxxxxx----xxxxxx---------------------------------------------------------------------|
D|-----------------------------------------------------------------------------------------------------------|

e|-----------------------------------------------------------------------------------------------------------|
B|----------------------------------------------------------------------------------------------17-14-17-17~-|
G|-/14----14-13--13-13\--/16--16-16--16-18--18-18~~\--13tr14tr-16-14-16-16-16~-18-14-18-18-14-18-------------|
D|----14~------14-----------14-----14-----16-----------------------------------------------------------------|
A|-----------------------------------------------------------------------------------------------------------|
D|-----------------------------------------------------------------------------------------------------------|

e|-----------------------------------------------------------------------------------------------------------|
B|-----------------------------------------------------------------------------------------------------------|
G|--2---------2------1st time---2nd time----3rd time---4th---------------------------------------------------|
D|--2-4-2-4---2-4-2-4-[/5-2]---[xxx--xxx]---[/5-/5]---[6-4]--------------------------------------------------|
A|--0-4-2-4---0-4-2-4-[/5-2]---[xxx--xxx]---[/5-/5]---[4-2]--------------------------------------------------|
D|----4-2-4-----4-2-4-[/5-2]---[xxx--xxx]---[/5-/5]----------------------------------------------------------|

e|------------------1st time-----2nd time--------------------------------------------------------------------|
B|--7----9----10---[9----5---]--[12---9---]------------------------------------------------------------------|
G|--x-x8-x-x8-x-x8-[x-x4-x-x4]--[x-x4-x-x4]-----Do this whole thing twice------------------------------------|
D|--4----6----7----[6----2---]--[9----6---]------------------------------------------------------------------|
A|------------------------------[---------]------------------------------------------------------------------|
D|------------------------------[---------]------------------------------------------------------------------|

e|------------------1st time-----2nd time--------------------------------------------------------------------|
B|--7----9----10---[9----5---]--[12---9-------]--------------------------------------------------------------|
G|--x-x8-x-x8-x-x8-[x-x4-x-x4]--[x-x4-x-x4----]-----Now repeat the beginning to here again-------------------|
D|--4----6----7----[6----2---]--[9----6----4\-]--------------------------------------------------------------|
A|------------------------------[----------4\-]--------------------------------------------------------------|
D|------------------------------[----------4\-]--------------------------------------------------------------|

e|-----------------------------------------------------------------------------------------------------------|
B|-----------------------------------------------------------------------------------------------------------|
G|------------------------------------------------Repeat twice-----------------------------------------------|
D|--444444-x2-666666-x2-777777-x2-666666-x2------------------------------------------------------------------|
A|--xxxxxx----xxxxxx----xxxxxx----xxxxxx---------------------------------------------------------------------|
D|-----------------------------------------------------------------------------------------------------------|

************************************

| /   slide up
| \   slide down
| ~   vibrato
| x   Mute note
| tr  Tremolo pick
************************************

            
            
Suggest correction
Creating personal tab
Creating personal tab
You can edit any tab online and save it as your Personal.

You can edit, replace or remove any tab part or add personal notes – all changes will be seen only by you.

Personal tabs can be accessed anytime from any device, even offline.
Learn more »
Give kudos to tab author, rate the tab!
1 2 3 4 5
comments
print report bad tab
guest
You may want to rate the tab now too:
select rating
Wanna post a correction for this tab? Suggest correction