Oops, an error
Loading. Please wait.

Curve Tab

1,179 views 9 this week
1 commentread comment
1 2 3 4 5
please rate
add to favorites
launch autoscroll
font size
0
reset
how to read this tab
guitar tuner
Autoscroll
slow
fast
+/-
esc
set tempo
stop
Help us to improve Ultimate-Guitar.com Take our survey!
×
Author
Difficulty
novice
Curve
Papadosio       papadosio.com/‎

Part 1
e|----------------------------------------------|
B|----------------------------------------------|
G|-------------12-------------------------------|
D|----12----10--------12\10---10----9h10p9------|x3
A|-10----10--------10-------12---12--------10---|
E|----------------------------------------------|

E|----------------------------------------------|
B|----------------------------------------------|
G|-------------12--------14-------16----19------|
D|----12----10-----10-12----12-14----14---------|
A|-10----10-------------------------------------|
E|----------------------------------------------|

Part 2
e|-----------------------|
B|-----------------------|
G|---7----9----11---12---|
D|---9----10---12---14---|
A|---10---12---14---15---|
E|-----------------------|

Part 3 (Goes Something like This)

e|---------------------------------------------|
B|---------------------------------------------|
G|-----------------------------11----------12--|
D|----12----10-12-14-----12-14----12----12-----|
A|-10----10-----------10-------------10--------|
E|---------------------------------------------|

e|-----------------------------------------------|
B|-----------------------------------------------|
G|-----------------------------11----------11----|
D|----12----10-12-14-----12-14----12----12----12-|
A|-10----10-----------10-------------10----------|
E|-----------------------------------------------|

Well, that's as much as I have so far. 
I'll submit the rest if I ever finish it.
Suggest correction
Give kudos to tab author, rate the tab!
1 2 3 4 5
comments
print report bad tab
1 comment total.
0 reply
Unchained31 94 wrote on January 12 2014, 12:50 am


dont think its 100% how I play it

e|---------------------------------------------------------------|
B|---------8-----------------------------------------------------|
G|---7----------7/---5-4ho5po4-----------------------------------|
D|------10----9-----7-7--------5---------------------------------|
A|-10------------------------------------------------------------|
E|---------------------------------------------------------------|

guest
You may want to rate the tab now too:
select rating
Please do not post tabs as comments. Select "correction" instead!