Oops, an error
Loading. Please wait.

Abus Bass Tab

552 views 1 this week
no commentswrite comment
1 2 3 4 5
please rate
add to favorites
launch autoscroll
font size
0
reset
guitar tuner
Autoscroll
slow
fast
+/-
esc
set tempo
stop
Help us to improve Ultimate-Guitar.com Take our survey!
×
Author
Hi.. Another amazing song by Papanegro. And anther amazing bass line.
most of it is slapped and the timing took for ever to figure out, so 
sorry for some mistakes. And also theres lots of fills mario does, so i
just usally improv at that part XD

comment, rate, enjoy ;) love peace and chicken grease AJ 

Normal tuning 
G|
D|
A|
E|

Intro
|-----|
|-x---|
|-----|
|---x-|
  P T

|----------------------5----------|
|------------5----------------6---|
|-------------------3-------------| x4
|-3-3-3-3-3----3---------4~-----4-|
  T T T T T  P T    T  P T    P T

Verse
|--------------------------------------------|
|--------------------------3----------3------|
|-3-3--1-1-----------------------------------| x3
|----------1-x-1--8\\--1-x---8\\--1-x----8\\-|
  T T  T T T T T  T    T T P T    T T P  T     

|------------------------------------------|
|--------------3-------3-------3------5----|
|-3-3--1-1---------------------------------|
|----------1-x----1-x-----1-x-------3---4~-|
  T T  T T T T P  T T  P  T T  P    T P T 

Main Riff
|---|----------------------5----------|
|-5-|------------5----------------6---|
|---|-------------------3-------------| x4
|---|-3-3-3-3-3----3---------4~-----4-|
  P   T T T T T  P T    T  P T    P T

Verse
|--------------------------------------------|
|--------------------------3----------3------|
|-3-3--1-1-----------------------------------| x3
|----------1-x-1--8\\--1-x---8\\--1-x----8\\-|     
  T T  T T T T T  T    T T P T    T T P  T

|------------------------------------------|
|--------------3-------3-------3------5----|
|-3-3--1-1---------------------------------|
|----------1-x----1-x-----1-x-------3---4~-|
  T T  T T T T P  T T  P  T T  P    T P T 

Bridge
|-----------------------------|
|-3------------5--3-----------|
|----------1-3----------------| x3
|---1--3-4----------1--3-4-\\-|

|------------------------|
|-3------------5---------|
|----------1-3-----------|
|---1--3-4-------x-x-x-x-|
                 T T T T 

Main riff
|----------------------5----------|
|------------5----------------6---|
|-------------------3-------------| x8
|-3-3-3-3-3----3---------4~-----4-|
  T T T T T  P T    T P  T    P T

Verse 2
|--------------------------------------------|
|--------------------------3----------3------|
|-3-3--1-1-----------------------------------| x3
|----------1-x-1--8\\--1-x---8\\--1-x----8\\-|     
  T T  T T T T T  T    T T P T    T T P  T

|-----------------------------------------|
|--------------3-------3-------3--------3-|
|-3-3--1-1--------------------------------|
|----------1-x----1-x-----1-x------1-x----|
  T T  T T T T P  T T  P  T T  P   T T  P 

Outro (till end)
|--------------------------------------------------------------------------|
|---5----------5------------------6------------------8---------------------|
|--------------------------------------------------------------------11-11-|
|-3---3-3-3-3----3--4--4-4-4-4-4----4--6--6-6-6-6-6----6--8--8-8-8-8-------|
  T P T T T T  P T  T  T T T T T  P T  T  T T T T T  P T  T  T T T T T  T 


And thats it. comment, rate, enjoy ;) love peace and chicken grease AJ 
Suggest correction
Give kudos to tab author, rate the tab!
1 2 3 4 5
comments
print report bad tab
guest
You may want to rate the tab now too:
select rating
Wanna post a correction for this tab? Suggest correction