Oops, an error
Loading. Please wait.

Cortentrete Bass Tab

4,312 views 3 this week
no commentswrite comment
1 2 3 4 5
1 last vote to show rating
add to favorites
launch autoscroll
font size
0
reset
guitar tuner
Autoscroll
slow
fast
+/-
esc
set tempo
stop
Help us to improve Ultimate-Guitar.com Take our survey!
×
Author
Hi. Another amazing song by Papanegro. another amazing bass line! nice and
slow, but still abit tricky on the rythem side. Keep listening for the 
ghost notes and this song will be a breeze ;) 

Comment, rate, enjoy ;) AJ 

Normal Tuning 
G|
D|
A|
E|

Synth Intro
|---------|
|---------|
|-------3-|
|-5-4-3---|

Intro
|----------------|---------------|------7-x----------|-----------|
|---7-x----------|-x---7-x-------|-------------------|-x---------|
|----------------|-----------3-2-|-3/5------3-3//7-3-|---------3-|
|-5-----3-3//7-3-|---5-----3-----|-------------------|---5-4-3---|
  T P P T T    T   P T P P T T T   T    P P T T    T   P T T T T 

Verse
|--------------------6----7-----------|
|---7----7----------------------------|
|----------------x-4---5--------------| x7 Lots of verations at the end
|-5---5----3-x-5------------x-3-3-2-2-|    riff with the same two notes 3&2

|--------------------6----7-----------|
|---7----7-------------------5-x------|
|----------------x-4---5---------3h5--|
|-5---5----3-x-5----------------------|
                             P P T
Chorus
|----------------|---------------|------7-x----------|---7-x-------|
|---7-x----------|-x---7-x-------|-------------------|-------------|
|----------------|-----------3-2-|-3/5------3-3//7-3-|-5-----3-----|
|-5-----3-3//7-3-|---5-----3-----|-------------------|---------3-4-|
  T P P T T    T   P T P P T T T   T    P P T T    T   T P P T T T 

|----------------|---------------|------7-x----------|-----------|
|---7-x----------|-x---7-x-------|-------------------|-x---------|
|----------------|-----------3-2-|-3/5------3-3//7-3-|---------3-|
|-5-----3-3//7-3-|---5-----3-----|-------------------|---5-4-3---|
  T P P T T    T   P T P P T T T   T    P P T T    T   P T T T T

Verse
|--------------------6----7-----------|
|---7----7----------------------------|
|----------------x-4---5--------------| x3
|-5---5----3-x-5------------x-3-3-2-2-|

|--------------------6----7----------------|
|---7----7---------------------------------|
|----------------x-4---5-----5-3---5-3-----|
|-5---5----3-x-5-----------------5-----5-3-|

Interlude
|------------------|--------------|---------------------|---------------|
|------------------|--------------|--------8/10-8-------|-5h7-5h7-5-----|
|-5--5-3---3--3//7-|-x-7-7--7-5---|------8--------8-----|-----------7-6-|
|--------5---------|------------7-|-6--6------------6-5-|---------------|
                                                          P   P   P T T

|------------------|--------------|---------------------|----------------|
|------------------|--------------|--------8/10-8-------|---8---------10-|
|-5--5-3---3--3//7-|-x-7-7--7-5---|------8--------8-----|----------------|
|--------5---------|------------7-|-6--6------------6-5-|-6---8-x-x-8----|

Chorus
|----------------|---------------|------7-x----------|---7-x-------|
|---7-x----------|-x---7-x-------|-------------------|-------------|
|----------------|-----------3-2-|-3/5------3-3//7-3-|-5-----3-----|
|-5-----3-3//7-3-|---5-----3-----|-------------------|---------3-4-|
  T P P T T    T   P T P P T T T   T    P P T T    T   T P P T T T 

|----------------|---------------|------7-x----------|-----------|
|---7-x----------|-x---7-x-------|-------------------|-x---------|
|----------------|-----------3-2-|-3/5------3-3//7-3-|---------3-|
|-5-----3-3//7-3-|---5-----3-----|-------------------|---5-4-3---|
  T P P T T    T   P T P P T T T   T    P P T T    T   P T T T T

Synth Solo
|----------------|---------------|------7-x----------|---7-x-------|
|---7-x----------|-x---7-x-------|-------------------|-------------|
|----------------|-----------3-2-|-3/5------3-3//7-3-|-5-----3-----| x2
|-5-----3-3//7-3-|---5-----3-----|-------------------|---------3-4-|

|------------------|--------------|---------------------|---------------|
|------------------|--------------|--------8/10-8-------|-5h7-5h7-5-----|
|-5--5-3---3--3//7-|-x-7-7--7-5---|------8--------8-----|-----------7-6-|
|--------5---------|------------7-|-6--6------------6-5-|---------------|
                                                          P   P   P T T 

|------------------|--------------|---------------------|----------------|
|------------------|--------------|--------8/10-8-------|---8---------10-|
|-5--5-3---3--3//7-|-x-7-7--7-5---|------8--------8-----|----------------|
|--------5---------|------------7-|-6--6------------6-5-|-6---8-x-x-8----|

Chorus
|----------------|---------------|------7-x----------|---7-x-------|
|---7-x----------|-x---7-x-------|-------------------|-------------|
|----------------|-----------3-2-|-3/5------3-3//7-3-|-5-----3-----| 
|-5-----3-3//7-3-|---5-----3-----|-------------------|---------3-4-|

|----------------|---------------|------7-x----------|-----------|
|---7-x----------|-x---7-x-------|-------------------|-x---------| Repeat
|----------------|-----------3-2-|-3/5------3-3//7-3-|---------3-| both riff
|-5-----3-3//7-3-|---5-----3-----|-------------------|---5-4-3---| Till end

And thats it :) Comment, rate, Enjoy ;) AJ 
Suggest correction
Give kudos to tab author, rate the tab!
1 2 3 4 5
comments
print report bad tab
guest
You may want to rate the tab now too:
select rating
Wanna post a correction for this tab? Suggest correction