Oops, an error
Loading. Please wait.

Iamgod Bass Tab

version 1
version 1

Whole song

Interactive

10,712 views 18 this week
no commentswrite comment
1 2 3 4 5
x 3
add to favorites
launch autoscroll
font size
0
reset
guitar tuner
Autoscroll
slow
fast
+/-
esc
set tempo
stop
Help us to improve Ultimate-Guitar.com Take our survey!
×
Author
-------------------------------------------------------------------------------
                             I.A.M.G.O.D. - Papanegro
-------------------------------------------------------------------------------
Tabbed by: Ints92
E-mail: indrek92@gmail.com

Tuning: Standard

Like all my other tabs, this has been tabbed by ear and as I'm not a professional, there 
might be some mistakes.
If you find any, please tell me and I will fix them. Any feedback is appreciated. If 
this tab doesn't qualify, I'd like to know the reason.


Intro

G|-------------------------------------------------------------|
D|--4-4----------------4-4--4-4----------------4-4-------------|
A|------------2--4--6-----------------2--4--6------------------|  x4
E|------2--4--------------------2--4---------------------------|

Verse

G|------------------------------------------------------------9-------------------|
D|-------------------------------------------------------------------9-9-8--6-----|
A|--4--6\------4--5--6------------------------------4--6--7-------7------------9--|
E|-----------6----------/6--x-4--5--6---/4--x-4--6--------------------------------|

G|------------------------------------------------------------9-------------------|
D|-------------------------------------------------------------------9-9-8--6-----|
A|----/6-------4--5--6------------------------------4--6--7-------7------------9--|
E|-----------6----------/6--x-4--5--6---/4--x-4--6--------------------------------|

Chorus (slap)

G|-------8-------------------------8p6----------x-------8---------6--------------8p6----------x--|
D|------------------8------------------x--6h8-x--------------------------------------x--6h8-x----|
A|--/6-x----6h8------------------------------------/6-x----6--4-x----4--2-x-2--4-----------------|
E|--------------6-x----6-7-x-7--9----------------------------------------------------------------|

G|-------8-------------------------8p6----------x-------8---------6----------------6----6----|
D|------------------8------------------x--6h8-x----------------------------------------------|
A|--/6-x----6h8------------------------------------/6-x----6--4-x----4--2-x-2--4------x---4--|
E|--------------6-x----6-7-x-7--9------------------------------------------------------------|

Verse (slap)

G|-------8------------------------------------------------9-----------x-----x-----|
D|----------------------8-------------------6-------------------------------------|   x2
A|--/6-x----4-6--------------------------------------/7-x-------/11-x---9-x-------|
E|-----------------/6-x----4--6--6-6---/4-x----2-4-----------7--------------------|

Chorus (slap)

G|-------8-------------------------8p6----------x-------8---------6--------------8p6----------x--|
D|------------------8------------------x--6h8-x--------------------------------------x--6h8-x----|
A|--/6-x----6h8------------------------------------/6-x----6--4-x----4--2-x-2--4-----------------|
E|--------------6-x----6-7-x-7--9----------------------------------------------------------------|

G|-------8-------------------------8p6----------x-------8---------6----------------6----6------|
D|------------------8------------------x--6h8-x------------------------------------------------|
A|--/6-x----6h8------------------------------------/6-x----6--4-x----4--2-x-2--4------x---4-4--|
E|--------------6-x----6-7-x-7--9--------------------------------------------------------------|

Bridge (effect - syntheziser)

G|--------------------------------------8-8----------------------|
D|---------------------------------------------------------------|  x4
A|--6--6-x-6--6---x-6--6---6--9-9-8--6---------------------------|
E|---------------------------------------------------------------|

G|---------------------------------------------------------------|
D|-------------------------------------6-6h8--6------------------|
A|--6--------------------------------------------6-7-------------|
E|-----------------6--------------4------------------------------|

Verse (fingerstyle)

G|------------------------------------------------------------9-------------------|
D|-------------------------------------------------------------------9-9-8--6-----|
A|-----6-------4--5--6------------------------------4--6--7-------7------------9--|
E|-----------6----------/6--x-4--5--6---/4--x-4--6--------------------------------|

Chorus (slap)

G|-------8-------------------------8p6----------x-------8---------6--------------8p6----------x--|
D|------------------8------------------x--6h8-x--------------------------------------x--6h8-x----|
A|--/6-x----6h8------------------------------------/6-x----6--4-x----4--2-x-2--4-----------------|
E|--------------6-x----6-7-x-7--9----------------------------------------------------------------|

G|-------8-------------------------8p6----------x-------8---------6----------------6----6----|
D|------------------8------------------x--6h8-x----------------------------------------------|
A|--/6-x----6h8------------------------------------/6-x----6--4-x----4--2-x-2--4------x---4--|
E|--------------6-x----6-7-x-7--9------------------------------------------------------------|

Outro (effect - syntheziser)

G|---------11--13--------------------------------------------------|
D|--13--13---------8-x-8---9--9--11---11-11-9--11------------------|
A|-----------------------------------------------------------------|  x3
E|-----------------------------------------------------------------|

G|---------11--13--------------------------------------------------|
D|--13--13---------8-x-8---9--9--11--------------------------------|
A|-----------------------------------------------------------------|
E|-----------------------------------------------------------------|

G|---------11--13--------------------------------------------------|
D|-/13--13---------8-x-8--8--9--9--11---11-11-9--11----------------|
A|-----------------------------------------------------------------|  x13
E|-----------------------------------------------------------------|

| /  slide up
| \  slide down
| h  hammer-on
| p  pull-off
| ~  vibrato
| +  harmonic
| x  Mute note
===============================================================================
Suggest correction
Give kudos to tab author, rate the tab!
1 2 3 4 5
comments
print report bad tab
guest
You may want to rate the tab now too:
select rating
Wanna post a correction for this tab? Suggest correction