Oops, an error
Loading. Please wait.

Papanegro Bass Tab

version 1
version 1

Whole song

Interactive

11,849 views 9 this week
no commentswrite comment
1 2 3 4 5
excellent!
x 4
add to favorites
launch autoscroll
font size
0
reset
guitar tuner
Tab Pro tools
  • play this tab
  • loop segment
  • change instrument
  • show fretboard
  • metronome
×
Best way to learn
"Papanegro"
Autoscroll
slow
fast
+/-
esc
set tempo
stop
Contributor
http://papanegro.cl/

Hi yall !!!!!!!! Amazing song by an amazing chilie band. This is definitaly
my favorite song by then, and i found no tabs for it :( So heres my take
on it ;) abit scetchy to tab out since its fast and funky XD 

you can check out this video showing you me playing it heres the link ;) 

>> http://www.youtube.com/watch?v=LAd06F0HmBE << 

love&Peace ! AJ 



Normal Tuning
G|
D|
A|
E|

Intro
|-------------------|
|-7-6---------------|
|-----7-5-7---------|
|--------------0--0-|

Main riff
|----------------------------|
|-----------------------7----|
|-------------------5h7---7--| X3
|-0--x--3--5--x--7-----------|
  T  T  T  T  T  T  T   P T

Fill 
|----9----6----7----8--|
|----------------------|
|--7----4----5----6----|
|----------------------|
   T P  T P  T P  T P 

Main Riff
|----------------------------|    |---------------------------|
|-----------------------7----|    |-------------------------5-|
|-------------------5h7---7--| X3 |---------------------------|
|-0--x--3--5--x--7-----------|    |-0--X--3--5--X--7--X-X-X---|
  T  T  T  T  T  T  T   P T         T  T  T  T  T  T  T T T P

|----------------------------|    |---------------------------|
|-----------------------7----|    |-------------------------5-|
|-------------------5h7---7--| X3 |---------------------------|
|-0--x--3--5--x--7-----------|    |-0--X--3--5--X--7--X-X-X---|
  T  T  T  T  T  T  T   P T         T  T  T  T  T  T  T T T P

|----------------------------|    |---------------------------|
|-----------------------7----|    |-------------------------5-|
|-------------------5h7---7--| X3 |---------------------------|
|-0--x--3--5--x--7-----------|    |-0--X--3--5--X--7--X-X-X---|
  T  T  T  T  T  T  T   P T         T  T  T  T  T  T  T T T P

|----------------------------|    |--------|
|-----------------------7----|    |--------|
|-------------------5h7---7--| X2 |--------|
|-0--x--3--5--x--7-----------|    |--0-0-0-|
  T  T  T  T  T  T  T   P T

Verse
|--------------------------|
|--------------------------|
|-7--------------4---5--6--| X4
|----4--5--6--7------------|

Interlude
|-------------------------------------------------------|
|---X-X-5--7---------------------5--3-5-----------------|
|-----------------7-7-5-4-------------------5-5-3-2-----| X2
|-5-----------5-5---------5-4--3--------3-3---------3-4-|

|------------------------------------------------------------------|
|---X-X-5--7---------------------3-3-3--2-2-2----------------5-6-7-|
|-----------------7-7-5-4---------------------0-0-0--0-5-6-7-------|
|-5-----------5-5---------5-4--3-----------------------------------|

Horns!

|----------|
|----------|
|----------|
|--5-5-4-3-|

Scrach! 

|-------------------------------------|
|---X-X-5--7-------------------7-6-5~-|
|-----------------7-7-5-4-------------|
|-5-----------5-5---------5-4---------|

Main Riff
|----------------------------|    |---------------------------|
|-----------------------7----|    |-------------------------5-|
|-------------------5h7---7--| X3 |---------------------------|
|-0--x--3--5--x--7-----------|    |-0--X--3--5--X--7--X-X-X---|
  T  T  T  T  T  T  T   P T         T  T  T  T  T  T  T T T P

|----------------------------|    |-----------------------|
|-----------------------7----|    |-----------------------|
|-------------------5h7---7--| X3 |-------------------6-7-|
|-0--x--3--5--x--7-----------|    |-0--X--3--5--X--7------|
  T  T  T  T  T  T  T   P T         T  T  T  T  T  T 

Bridge
|----------------------------12h13v-|
|-------12\11-----------------------|
|-------------12---5-7--------------| x2
|-0--0-----------7--------x---------|

|-----------------12h13v------------------------|
|-----------------------------------------------|
|----------5-7----------------------------------|
|--0--0-0------0---------0--0-0----0-0-0-0////--|

Main Riff
|----------------------------|    |---------------------------|
|-----------------------7----|    |-------------------------5-|
|-------------------5h7---7--| X3 |---------------------------|
|-0--x--3--5--x--7-----------|    |-0--X--3--5--X--7--X-X-X---|
  T  T  T  T  T  T  T   P T         T  T  T  T  T  T  T T T P

|----------------------------|    |---------------------------|
|-----------------------7----|    |-------------------------5-|
|-------------------5h7---7--| X3 |---------------------------|
|-0--x--3--5--x--7-----------|    |-0--X--3--5--X--7--X-X-X---|
  T  T  T  T  T  T  T   P T         T  T  T  T  T  T  T T T P

|----------------------------|    |---------------------------|
|-----------------------7----|    |-------------------------5-|
|-------------------5h7---7--| X3 |---------------------------|
|-0--x--3--5--x--7-----------|    |-0--X--3--5--X--7--X-X-X---|
  T  T  T  T  T  T  T   P T         T  T  T  T  T  T  T T T P

|----------------------------|    |-----------------------|
|-----------------------7----|    |-----------------------|
|-------------------5h7---7--| X3 |-------------------6-7-|
|-0--x--3--5--x--7-----------|    |-0--X--3--5--X--7------|
  T  T  T  T  T  T  T   P T         T  T  T  T  T  T 

Outro
|---------------------------|    |----|
|----------------------5--5-|    |----|
|-7----------------5--------| X4 |----|
|----4--5--6--7--7---7------|    |-0~-|

and thats it :) comment rate please ;) 

love&peace AJ! :D
comments
print report bad tab
I want to post or [tab]
guest
You may want to rate the tab now too:
select rating
Please do not post tabs as comments. Select "correction" instead!