Oops, an error
Loading. Please wait.

Wokman bass

469 views 6 this week
no commentswrite comment
1 2 3 4 5
1 last vote to show rating
add to favorites
×
Save as Personal and add changes to this tab that will be seen only by you. Learn more ›
×
You can save this tab as Personal to edit and correct it or add notes. All changes will be seen only by you. Learn more »
launch autoscroll
font size
0
reset
guitar tuner
edit
Autoscroll
slow
fast
+/-
esc
set tempo
stop
Intro

G  ----------------------------------------------------
D  ----------4---6-------------------------------------
A  -------------------2----4---44---2--4---2-----------
E  -----4------------------------------------------4---

G  ---------------------------
D  -----------4---6-----------
A  -------------------2---4---
E  ------4--------------------

G  ----------------------------------------------------
D  ----------4---6-------------------------------------
A  -------------------2----4---44---2--4---2-----------
E  -----4------------------------------------------4---

G  ----------------------------------------
D  -----------4---6-----2-----44-----------
A  ----------------------------------2---4-
E  ------4---------------------------------


Verso

Mis ojos cegados por la luz?

G  ----------------------------------------------------
D  ----------4---6-------------------------------------
A  -------------------2----4---44---2--4---2-----------
E  -----4------------------------------------------44--

G  ---------------------------------------------------
D  ---------4---6------2----44------------------------
A  -------------------------------2-----4-------------
E  -----4-----------------------------------1---2---3-

G ---------------------------------------------------------
D ------4--6---------9----9/11---1111----9---11-----9------
A --------------2---------------------------------------11-
E --4------------------------------------------------------


G  -----------------------------------------
D  -----------4---6-----2-----44------------
A  ----------------------------------2---4/-
E  ------4----------------------------------


 Press play?

G  ---------------------------
D  ---------------------------
A  ---------------------------
E  ------4/-----4/------4/----


And there ain't nothing I can do?

G  ----------------------------------------------------------
D  -----2/4------------2---3---4----------------2---3--4/----
A  ----------2---4-----------------2---4---------------------
E  ----------------------------------------------------------

G  -------------------------------------------------------------
D  --------4---6-----99-----9/11----1111----9----11----9--------
A ----------------------------------------------------------11--
E  ----4--------------------------------------------------------

G  -------------------------------------------------------------
D  ---------4---6-----2------44---------------------------------
A  ---------------------------------2-----4/--------------------
E  ------4--------------------------------------22----33----44--

(Aquí con slap)

G  --9/11---11------------9-------9------
D  --------------------------------------
A  ---------------------------7-------8--
E  ----------------x-7-------------------

G  ----------9-----------------------
D  --------------------7h9p7---------
A  ---8/9------------------------9---
E  -------------x--7-----------------


G   ----9/11---11-----------9------------------
D   -------------------------------------------
A   -------------------------------7------8/9--
E   ------------------x-7----------------------

G   ----------------------------
D   ----------------------------
A   ----------------------------
E   ---99-----77----66---44-----

G   --------------------------------------------------
D   --------------------------------------------------
A   ----------------------22---3-4--------------------
E   ---4-------x2--4-----------------0------2-----4-4-


G   ------------------------------------------------------
D   ------------------------------------------------------
A   -----------------------------22---3-4-----------------
E   -------4---4--2---2----4---------------0-----2-----4/-

G  ---------------------------------------------------
D  ----------4---6------------------------------------
A  -------------------2----4---44---2--4---2----------
E  -----4------------------------------------------4--


G  -----------------------------------------
D  -----------4---6-----2-----44------------
A  ----------------------------------2---4/-
E  ------4----------------------------------

My smile means more than it shows?


G  ------------------------------------------------------------
D  --------4---6-----99-----9/11----1111----9----11----9-------
A  --------------------------------------------------------11--
E  ----4-------------------------------------------------------


G  -----------------------------------------
D  -----------4---6-----2-----44------------
A  ----------------------------------2---4/-
E  ------4----------------------------------

G  ---------------------
D  ---------------------
A  ---------------------
E  ----22---33------44--

G  ---9/11----11------------------9-------9------
D  ----------------------------------------------
A  -----------------------------------7-------8--
E  -------------------x-7------------------------

G  ----------9---------------------
D  ---------------------7h9p7------
A  ---8/9------------------------9-
E  -------------x-7----------------

G   ---9/11----11----------9----------------------------
D   ----------------------------------------------------
A   ----------------------------7------8/9--------------
E   ------------------x-7---------------------99----77--

Aqui? mientras va el solo de teclado?

G  ----------------------------------------------
D  -----------x--------------9-------10------11--
A  ----------------------------------------------
E  ------4-------x-----7--------8--------9-------

G  --------------------------------
D  -----------4------5-------6-----
A  --------------------------------
E  ?x-----2------3------4-------x--


G  ------------------------------
D  ---------9-------10------11---
A  ------------------------------
E  ---7--------8--------9--------

G  --------------------------------
D  ---------------------------6----
A  --------------------------------
E  --x---22-----33-----4--------x--


G  -----------------------------------------------------------
D  ---------9-------10------11------------4------5-------6----
A  -----------------------------------------------------------
E  ---7--------8--------9--------x----2------3------4-------x-


G  -----------------------------
D  ---------9-------10------11--
A  -----------------------------
E  ---7--------8--------9-------


G  --------------------------------
D  --------13----------14----------
A  --------------------------------
E  ---11--------12----------14 /0--

G  -------------------------------------------------------------------
D  -------------------------------------------------------------------
A  -----------------------2---2----3-3----4--4--4 ----2---4 ----------
E  ---4--4--4----2---4----------------------------------------2?---3?-


G  -----------------------------------------------------------------
D  -----------------------------------------------------------------
A  ---------------------------2---2----3--3------3/4----------------
E  -------4---4-4---2----4------------------------------2---2/17/0--

G  ----------------------------------------------------
D  ----------4---6-------------------------------------
A  -------------------2----4---44---2--4---2-----------
E  -----4------------------------------------------4---

G  -------------------------------------------------
D  -----------4---6-----2-----44--------------------
A  ----------------------------------2---4----------
E  ------4------------------------------------2---3-

G  ---------------------------------------------------------------
D  ------4--6------------9-----9/11---1111----9---11-----9--------
A  ----------------2------------------------------------------11--
E  --4------------------------------------------------------------


G  -----------------------------------------
D  -----------4---6-----2-----44------------
A  ----------------------------------2---4/-
E  ------4----------------------------------


Press play

G  ----------------------------
D  ----------------------------
A  ----------------------------
E  ------4/-----4/------4/-----


And there ain't nothing I can do?


G  --------------------------------------------------------
D  -----2/4------------2---3---4----------------2---3--4/--
A  ----------2---4-----------------2---4-------------------
E  --------------------------------------------------------

G  ------------------------------------------------------------
D  --------4---6-----99-----9/11----1111----9----11----9-------
A  ---------------------------------------------------------11-
E  ----4-------------------------------------------------------


G  ---------------------------------- ---------------------------
D  ----------4-----6------2------44------------------------------
A  --------------------------------------2----4/-----------------
E  ----4------------------------------------------22----33---44--

(Aquí con slap)

G  --9/11---11------------------9-------9------
D  --------------------------------------------
A  ---------------------------------7-------8--
E  ------------------x-7-----------------------

G  ----------9----------------------
D  --------------------7h9p7--------
A  ---8/9------------------------9--
E  -------------x -7----------------


G   ----9/11---11-----------9-----------------
D   ------------------------------------------
A   -------------------------------7------8/9-
E   ------------------x-7---------------------

G   ---------------------------
D   ---------------------------
A   ---------------------------
E   ---99-----77----66---4/----

Fin.

/ = slide descendente
X?= sonido cortado


La canción no está perfecta,
pero en verdad suena bonito con esta rola.
Por supuesto que esta sujeta a modificaciones
así que cualquier aporte que quieran hacerle
bienvenido sea

consultas, reclamos, sugerencias, felicitaciones,
invitaciones a fiestas, cualquier cosa, a mi mail


Saludos chic@s y que viva la música

            
            
Suggest correction
Creating personal tab
Creating personal tab
You can edit any tab online and save it as your Personal.

You can edit, replace or remove any tab part or add personal notes – all changes will be seen only by you.

Personal tabs can be accessed anytime from any device, even offline.
Learn more »
Give kudos to tab author, rate the tab!
1 2 3 4 5
comments
print report bad tab
guest
Wanna post a correction for this tab? Suggest correction