Oops, an error
Loading. Please wait.

Chariots chords

565 views 39 this week
no commentswrite comment
1 2 3 4 5
x 3
add to favorites
×
Save as Personal and add changes to this tab that will be seen only by you. Learn more ›
×
You can save this tab as Personal to edit and correct it or add notes. All changes will be seen only by you. Learn more »
launch autoscroll
font size
0
reset
transpose
0
reset
display chords
guitar tuner
edit
Autoscroll
slow
fast
+/-
esc
set tempo
stop
Author
Difficulty
Strumming
There is no strumming pattern for this song yet. and get +5 IQ
Song: Chariots
Artist: Paper Route

PS: I miss the effect in the riff1, if anyone can help me thanks!

[Verse]
Am                 Dm
Love, Is never invicible
             C                 G      C  G#m
It's the mystical, a body into a soul
Am                        Dm
You, you thought of me differently
           C                    G     C 
Traded everything, a moment in memory
        G#m             Am
You promised me that everything is fair if it's love and war
            Dm
But you're giving up the fight
            C             G    C 
Is it not worth fighting for?
G#m          Am
All of this tethered to the heart holding what you meant
        Dm
If it's really what you want
        C           G     C
Then I confidently send
G#m
Chariots

[Chorus]
Am
I send my love to carry it
F            C                  G       C
Without your guard our chariots fall 
G#m
Chariots
Am
No part of us left innocent
F            C                  G       C
Without your heart our chariots fall
G#m
Chariots

[Verse]
Am                        Dm
Blind, to think you would never thirst
        C
in the burning earth
                   G            C G#m
And trade what our love is worth
Am                Dm         C        G     C
I am sewn to your sleeve, refuse to retreat
G#m
I'm chasing every 
Am
shadow off the wall, I am caught in time
Dm
All these chemicals I take
        C               G       C
Can't erase you from my mind
G#m
All of this 
Am
tethered to a thought, I am holding here
        Dm
If it's really what you want
     C                 G      C
Then I'll patiently prepare
G#m
Chariots


[Chorus]
Am
I send my love to carry it
F            C                  G       C
Without your guard our chariots fall 
G#m
Chariots
Am
No part of us left innocent
F            C                  G       C
Without your heart our chariots fall
G#m
Chariots


[Solo]
  Am                                                  F
e|---12-10-------------12-10-12-10--------------12-10---------|
B|---------12-10-12-10-------------12-10-12-10--------13------|
G|------------------------------------------------------------|
D|------------------------------------------------------------|
A|------------------------------------------------------------|
E|------------------------------------------------------------|
           C                 G                 C     G#m
e|---10-------10----12-10-------------------------------------|
B|------13-------13-------13----12-------------12-------10----|
G|---------12----------------12-------------12-----9-12-------|
D|------------------------------------------------------------|
A|------------------------------------------------------------|
E|------------------------------------------------------------|


Am  F     C     G      C  G#m Am
e|--12----10--------------10------|
B|-----------13-12-----13----10---|
G|--------------------------------|
D|--------------------------------|
A|--------------------------------|
E|--------------------------------|

Am                                              
I'm losing my faith, I'm losing it all          
F                       C               G       
Just gimme a chance before... (Chariots fall)   
Where's the blood                                (x3)
             C                                  
Where's the blood                               
             G#m                                
Where's the blood                               

[Solo]
        G#m             
e|------------------|
B|------------------|
G|------------------|
D|----5-5-----------|
A|--7-----7-5-3-----|
E|--------------5---|

Riff1 2x
  Am                                                  F
e|---12-10-------------12-10-12-10--------------12-10---------|
B|---------12-10-12-10-------------12-10-12-10--------13------|
G|------------------------------------------------------------|
D|------------------------------------------------------------|
A|------------------------------------------------------------|
E|------------------------------------------------------------|
           C                   G                    C     G#m
(           Chariots fall...                         Chariots  )
e|---10-------10----12---10-------------------------------------|
B|------13-------13---------13----12-------------12-------10----|
G|---------12------------------12-------------12-----9-12-------|
D|--------------------------------------------------------------|
A|--------------------------------------------------------------|
E|--------------------------------------------------------------| 
Suggest correction
Creating personal tab
Creating personal tab
You can edit any tab online and save it as your Personal.

You can edit, replace or remove any tab part or add personal notes – all changes will be seen only by you.

Personal tabs can be accessed anytime from any device, even offline.
Learn more »
Give kudos to tab author, rate the tab!
1 2 3 4 5
comments
print report bad tab
guest
You may want to rate the tab now too:
select rating
Wanna post a correction for this tab? Suggest correction