Oops, an error
Loading. Please wait.

Triste Payaso tab

33 views 1 this week
no commentswrite comment
1 2 3 4 5
3 more votes to show rating
add to favorites
×
Save as Personal and add changes to this tab that will be seen only by you. Learn more ›
×
You can save this tab as Personal to edit and correct it or add notes. All changes will be seen only by you. Learn more »
launch autoscroll
font size
0
reset
how to read this tab
guitar tuner
edit
Autoscroll
slow
fast
+/-
esc
set tempo
stop
Bueno aki les va la cancion del Payaso se la dedico a todos las
personas q llevan la vida d un payaso para no preocupar a
los demas y voten por excelente porfavor y cualquier duda me
llamo HEACXELL y tmb mi msn es cenmysbat@
SUERTE XD

intro #1

1)-5-7-5-7-5-7-5-4-3-3-2-3-2-3-2-1-0-5-4-5-4-5-4-2-3-0
2)----------------------------------------------------
3)----------------------------------------------------
4)----------------------------------------------------
5)----------------------------------------------------
6)---------------------------------------------------- (2 veces)

intro #2 ( el mas xvre ) :p

1)---------6-6---6--6-6-6-6-----------------5-5-5-----
2)-8-8-8-8-----8-----------6-6---6--6-6-6-6----6------
3)-----------------------------7----------------------
4)----------------------------------------------------
5)----------------------------------------------------
6)----------------------------------------------------

1)-5-5-5-5-6-5----------------------------------------
2)-------------6-8------------------------------------
3)----------------------------------------------------
4)----------------------------------------------------
5)----------------------------------------------------
6)---------------------------------------------------- (2 veces)

FA#m   LA            MI             FA#m
No hay licor que me ayude a saciar mi dolor...
        LA          MI                 FA#m
No hay mujer que me ayude a olvidar este amor...
        RE            LA                MI
estoy llorando,estoy sufriendo,ella se fueeeee..


        RE                LA              MI              FA#m
Llevo la vida de un trizte payaso que rie por fuera y llora por dentro..
RE                LA                      MI              FA#m
mis amigos me ven sonreir pero no saben k estoy destrozado de amoR..
           RE            MI              FA#m
 esa es mi vida..asi vivo iooo..asi muero iooo...


*Mi rostro sonrie y mientras mi alma llora su lamento de amor ...
por queeeeeeeeeeeeeeeee!!....  ( mientras dice eso hacen esto )

1)-5-7-5-7-5-7-5-4-3-3-2-3-2-3-2-1-0-5-4-5-4-5-4-2-3-0
2)---------------------------------------------------- (2 veces)

1)---------6-6---6--6-6-6-6-----------------5-5-5-----
2)-8-8-8-8-----8-----------6-6---6--6-6-6-6----6------
3)-----------------------------7----------------------
4)----------------------------------------------------
5)----------------------------------------------------
6)----------------------------------------------------

1)-5-5-5-5-6-5----------------------------------------
2)-------------6-8------------------------------------
3)----------------------------------------------------
4)----------------------------------------------------
5)----------------------------------------------------
6)---------------------------------------------------- (2 veces)

FA#m   LA            MI             FA#m
No hay licor que me ayude a saciar mi dolor...
        LA          MI                 FA#m
No hay mujer que me ayude a olvidar este amor...
        RE            LA                MI
estoy llorando,estoy sufriendo,ella se fueeeee..


          RE                LA              MI              FA#m
Llevo la vida de un trizte payaso que rie por fuera y llora por dentro..
RE                LA                      MI              FA#m
mis amigos me ven sonreir pero no saben k estoy destrozado de amoR..
           RE            MI              FA#m
 esa es mi vida..asi vivo yooo..asi muero yooo...

1)---------6-6---6--6-6-6-6-----------------5-5-5-----
2)-8-8-8-8-----8-----------6-6---6--6-6-6-6----6------
3)-----------------------------7----------------------
4)----------------------------------------------------
5)----------------------------------------------------
6)----------------------------------------------------

1)-5-5-5-5-6-5----------------------------------------
2)-------------6-8------------------------------------
3)----------------------------------------------------
4)----------------------------------------------------
5)----------------------------------------------------
6)---------------------------------------------------- (2 veces)

RE                LA              MI              FA#m
Llevo la vida de un trizte payaso que rie por fuera y llora por dentro..
RE                LA                      MI              FA#m
mis amigos me ven sonreir pero no saben k estoy destrozado de amoR..
           RE            MI              FA#m
 esa es mi vida..asi vivo yooo..asi muero yooo...

1)---------6-6---6--6-6-6-6-----------------5-5-5-----
2)-8-8-8-8-----8-----------6-6---6--6-6-6-6----6------
3)-----------------------------7----------------------
4)----------------------------------------------------
5)----------------------------------------------------
6)----------------------------------------------------

1)-5-5-5-5-6-5----------------------------------------
2)-------------6-8------------------------------------
3)----------------------------------------------------
4)----------------------------------------------------
5)----------------------------------------------------
6)---------------------------------------------------- (2 veces)

PAPILLON PAPILLON LA TES RICO VACILON DE TARAPOTO PERU !!
(hacen lo de arriba mientras dicen esto)
dicen esto )

            
            
Suggest correction
Creating personal tab
Creating personal tab
You can edit any tab online and save it as your Personal.

You can edit, replace or remove any tab part or add personal notes – all changes will be seen only by you.

Personal tabs can be accessed anytime from any device, even offline.
Learn more »
Give kudos to tab author, rate the tab!
1 2 3 4 5
comments
print report bad tab
guest
Wanna post a correction for this tab? Suggest correction