Oops, an error
Loading. Please wait.

A Donde Esta La Libertad tab

version 2
version 2

Whole song

by Pappo
77 views 1 this week
no commentswrite comment
1 2 3 4 5
3 more votes to show rating
add to favorites
×
Save as Personal and add changes to this tab that will be seen only by you. Learn more ›
×
You can save this tab as Personal to edit and correct it or add notes. All changes will be seen only by you. Learn more »
launch autoscroll
font size
0
reset
how to read this tab
guitar tuner
edit
Autoscroll
slow
fast
+/-
esc
set tempo
stop
Introducion:
 (riff 1) ]
e---------]---------------------
b---------]-7e5-7---5-7-5-------
g---------]-------7------7-5-7--
d-------2-]---------------------
a--2----0-]---------------------
E--0--3---]---------------------

e-------------------------------
b-----------7e5-2-----------3---
g-----------------5-2-5-3-4-----
d-------2-----------------------
a--2----0-----------------------
E--0--3-------------------------

e-------------------------------
b------------5e-----------------
g------------5e--5-7e-5---------
d-------2-------7-------7-------
a--2----0-----------------------
E--0--3-------------------------

e-------------------------------
b-------------7e----------------
g-------------------------------
d-------2-----------------------
a--2----0-----------------------
E--0--3-------------------------

riff 1
      Adonde esta la libertad
riff 1
      no dejo nunca de pensar
riff 1
      quizas la tengan en algun lugar
riff 1                D
      que tendremos que alcanzar
                     D C D C D C
      no creo que nunca
                 D C D C
      si que nunca
                     D C D C D C
      no creo que nunca
         D  C    D  C      A(riff 2)
      la hemos pasado tan mal
      C          D
      no es posible
      C         D
      es imposible
             A B C B A B C B
      aguantar
riff 1
      el otro dia me quisieron matar
riff 1
      con ametralladoras papapapa
riff 1
      yo solo quiero escapar
riff 1
      de toda mi locura intelectual

                riff 2
      no creo que nunca
                 riff 2
      si que nunca
                     riff 3
      no creo que nunca
                       (riff 3)
      la hemos pasado tan mal
      C          D
      no es posible
      C         D
      es imposible
             A B C B A B C B
      aguantar.

riff 2
e-----------------------
b-----------------------
g-----------------------
d-----------------------
a--5-4-5-4-5-4---5-4-5-5
E--------------4--------

riff 3
e--------------------
b--------------------
g--5-----------------
d--5---7-5-----------
a----------7-5-------
E--------------8-5-3-
repite 4 veses

ahi modifique lo hecho porque era un desastre! ahora si quedo 100% BIEN.

            
            
Suggest correction
Creating personal tab
Creating personal tab
You can edit any tab online and save it as your Personal.

You can edit, replace or remove any tab part or add personal notes – all changes will be seen only by you.

Personal tabs can be accessed anytime from any device, even offline.
Learn more »
Give kudos to tab author, rate the tab!
1 2 3 4 5
comments
print report bad tab
guest
Wanna post a correction for this tab? Suggest correction