Oops, an error
Loading. Please wait.

Algunos Deslices chords

by Pappo
39 views 1 this week
no commentswrite comment
1 2 3 4 5
3 more votes to show rating
add to favorites
×
Save as Personal and add changes to this tab that will be seen only by you. Learn more ›
×
You can save this tab as Personal to edit and correct it or add notes. All changes will be seen only by you. Learn more »
launch autoscroll
font size
0
reset
transpose
0
reset
display chords
guitar tuner
edit
Autoscroll
slow
fast
+/-
esc
set tempo
stop
Strumming
There is no strumming pattern for this song yet. and get +5 IQ
INTRO

A  -  G  -  A  -  G
A  -  G  -  A  -  G
A  -  G  -  Bm -  D
A  -  G  -  Bm -  D


E|------------------------------------------------------
B|------------------------------------------------------
G|------------------------------------------------------
D|------------------------------------------------------
A|--5--0---------5--0--------5--0---------5--0----------
E|--------3--0---------3--0--------3--0--------3--0-----


Unos deslices cualquiera puede tener
Unos deslices cualquiera puede tener
E|------------------------------------------------------
B|------------------------------------------------------
G|------------------------------------------------------
D|--5--0---------5--0-----------------------------------
A|--------3--0---------3-----5--0---------5--0----------
E|-----------------------0---------3--0--------3--0-----

Tampoco es razonable vivir deslizándose

e|---------------------------------
B|---------------------------------
G|--4--4--4--4-------7--7--7--7----
D|--4--4--4--4-------7--7--7--7----
A|--2--2--2--2-------5--5--5--5----
E|---------------------------------

si una serpiente pudo engañar a Adán
si una serpiente pudo engañar a Adán
Saldría de este infierno, cruzaría el mar


A - G - A - G
No me encuentro tan solo, duele estar tan asi
No me encuentro tan triste, o muy triste

A - G - Bm - D  x  4

Solo de guitarra acústica

Unos deslices cualquiera puede tener
Unos deslices cualquiera puede tener
Tampoco es razonable vivir deslizándose

Lo que no cierra jamás podrá abrirse otra vez
lo que no cierra jamás podrá abrirse otra vez
Por eso mi amor por ti nena, fue deslizándose


Cruzaré la montaña
Hablaré con el sol
El dinero estoy solo
Que tan solo no estoy

A - G - Bm - D
A - G - A - G  (por el resto de la canción)


Una canción no muy recordada del carpo y muy linda por cierto,
alejada del pappo que todos conocemos bien rockero.
Suggest correction
Creating personal tab
Creating personal tab
You can edit any tab online and save it as your Personal.

You can edit, replace or remove any tab part or add personal notes – all changes will be seen only by you.

Personal tabs can be accessed anytime from any device, even offline.
Learn more »
Give kudos to tab author, rate the tab!
1 2 3 4 5
comments
print report bad tab
guest
Wanna post a correction for this tab? Suggest correction