Oops, an error
Loading. Please wait.

Aquel Gato bass

version 1
version 1

Whole song

by Pappo
62 views 1 this week
no commentswrite comment
1 2 3 4 5
3 more votes to show rating
add to favorites
×
Save as Personal and add changes to this tab that will be seen only by you. Learn more ›
×
You can save this tab as Personal to edit and correct it or add notes. All changes will be seen only by you. Learn more »
launch autoscroll
font size
0
reset
guitar tuner
edit
Autoscroll
slow
fast
+/-
esc
set tempo
stop
Esta tablatura esta mas prolija y tiene corregidos algunos errores de
La otra. La otra igualmente no estaba mal.

-Papi, papi ahí hay un ratón gigante
-oh no lo creo hijo mió
-si papi fíjate
-a ver déjame ver yo te enseñare como se caza,
es un maldito ratón
-cuidado papi es un error, es un ratón muy grande
-no te hagas problemas hijo mío, donde esta
-atrás de esa puerta papi
-a ver, donde estas?, por acá parece estar. Oh!, por
las garras de mi abuelo, jamás había visto un ratón
de semejante tamaño

G-*-------*--*---  *=mutear con mano (izquierda preferentemente)
D-*-------*--*---
A-0-------0--*---
E-*-------*--0---
                                   ?Ella me quiere, ella??
              2 veces                       2 veces
G|---------------------------------|------7----------7-7-9-|
D|---------------------------------|----79---------79------|
A|-2----2-22-0----2----2----2-22-0-|-7-------9--7----------|
G|-----0-0-----0------0----0-0-----|-----------------------|

                                   ?Aquel elástico le fue??
              2 veces                       2 veces
G|---------------------------------|------7----------7-7-9-|
D|---------------------------------|----79---------79------|
A|-2----2-22-0----2----2----2-22-0-|-7-------9--7----------|
E|-----0-0-----0------0----0-0-----|-----------------------|

             2 veces
G|---------------------------------|
D|---------------------------------|
A|-2----2-22-0----2----2----2-22-0-|
E|-----0-0-----0------0----0-0-----|

?De ahora en mas salvare mi alma?              ?me alejare de toda calma?
G|------------------------------------------------------------------------
D|------------------------------------------------------------------------
A|9--9-9-9-9-9-9-9-9-9-9-9-9-10-11-12--12-12-12-12-12-12-12-12-12-12-12-12
E|------------------------------------------------------------------------

             ?seré infiel no dependeré, y mataremos al traidor?
G|--------------------------------------------------------------|
D|--------------------------------------------------------------|
A|11-10-9--9-9-9-9-9-9-9-9-9-9-9-9-10-11-12--12-12-12-12-12---7-|
E|----------------------------------------------------------7---|

G|-42-----------------|
D|---4-3-2------------|
A|--------52-5--6--7--|
E|--------------------|

(empieza el solo de guitarra)
G|----------------------------------------------------------------------
D|-------------------------------------------------------0-2----2-2--0-1
A|-2----2-2----0-2----2-2----0-2----2-2----0-2----2-2-2-4------2---2----
E|-----2----0-2------2----2-4------2----2-4------2----------------------
   -             -             -             -             -
G|------------------------------------------
D|-2----2-2--0-1-2----2-2--0-1-2----2--2-2-2
A|-----2---2---------2---2---------2--------
E|------------------------------------------
   -             -             -             -             -
G|----------------------------------------------------------------------
D|----------------------------------------------------------------------
A|-2----2-2---0-2----2-2-5-2-0-2----2-2----0-2----2----2-2-0--0--0-0-0-0
E|-----2---0-2------2--------------2----0-2------2--------------------
   -             -             -             -             -
G|-----------------------------------------------------------------
D|-----------------------------------------------------------------
A|----------------------------------------------4--5-5-7---5-5-----
E|-0--0--0-0-0-0-7--7--7-7-7-7-7-7-7-7-7-7-7-5-----------5---------
   -             -             -             -             -
                                   ?Ella me quiere, ella??
              2 veces                       2 veces
G|---------------------------------|------7----------7-7-9-|
D|---------------------------------|----79---------79------|
A|-2----2-22-0----2----2----2-22-0-|-7-------9--7----------|
G|-----0-0-----0------0----0-0-----|-----------------------|

              2 veces
G|---------------------------------|
D|---------------------------------|
A|-2----2-22-0----2----2----2-22-0-|
E|-----0-0-----0------0----0-0-----|

 ?De ahora en mas salvare mi alma?              ?me alejare de toda calma?
G|------------------------------------------------------------------------
D|------------------------------------------------------------------------
A|9--9-9-9-9-9-9-9-9-9-9-9-9-10-11-12--12-12-12-12-12-12-12-12-12-12-12-12
E|------------------------------------------------------------------------

             ?seré infiel no dependeré, y mataremos al traidor?
G|--------------------------------------------------------------|
D|--------------------------------------------------------------|
A|11-10-9--9-9-9-9-9-9-9-9-9-9-9-9-10-11-12--12-12-12-12-12---7-|
E|----------------------------------------------------------7---|

G|-42-----------------|
D|---4-3-2------------|
A|--------52-0--1--2--|
E|--------------------|

?Hey! te lo dije, no te acerques a ella
tu juegas, no te das cuenta
te pusieron el elástico, se te secaron las bolas
seguiste jugando, se te cayeron los huevos
y ahora que, eres un gato frustrado, solamente
eres un gato castrado?

G|-----------------------------------------------------------------------
D|-----------------------------------------------------------------------
A|-2----2-2----0-2----2-2-5-2--2----2-2----0-2----2-2----0-2----2-2-5-2-0
E|-----2----0-2------2-------------2----0-2------2----0-2------2---------
   -             -             -             -             -
                                                            4:31
G|-----------------------------------------------------------------------
D|-----------------------------------------------------------------------
A|-2----2-2----0-2----2--2-2-2-2--2-2-2----0-2---2-2-5-2-0-2--2--2-2----0
E|-----2----0-2------2-------------2----0-2-----2---------------2----0-2-
   -             -             -             -             -

G|---------7---6---------------------------------------------------------
D|-----------------------------------------------------------------------
A|-2--2-0-2--5---2----2-2----0-2----2-2-5-2---2--2-2-2----0-2---2-2-5-2-0
E|-------------------2----0-2------2-------------------0-2-----2---------
   -             -             -              -             -
                                            4:49
G|--------------------4----4---------------------------------------4-----
D|---------------------------------------------------------------4-------
A|-2----2-2----0-2------22---0-2----2-2-----0-2----2-2----0-2-----------0
E|-----2----0-2------2-------------2----0-2-------2----0-2------2--------
   -             -             -              -             -
G|-------------------------4---------------------------------------------
D|----------------------4----------------------------2-------------------
A|-2----2-2----0-2----2--2---0-2----2-2-----0-2----2----5-0-2----2-2----0
E|-----2----0-2------2-------------2----0-2-------2-------------2----0-2-
   -             -             -              -             -
G|----------------------------------------4-----------------|
D|--------------------------------------4---4---------------|
A|-2----2--5-2-0-2----2-2----0-2----2---------2-------------|
E|-----2-------------2----0-2------2------------------------|
   -             -             -              -

Nota: los guiones son para marcar el inicio de cada compas del bajo cuando
improvisa sobre el solo de la guitarra y sobre el de las trompetas

Aquel gato (Pappo)

Ella me quiere, ella me ama
pero me castra, como aquel gato
que sin saberlo se entrego a su dama

Aquel elástico, le fue puesto
las dulces manos, de aquella dama
que no te ocurra, lo de aquel gato
perdió su sexo en aquella cama

De ahora en más salvare mi alma
me alejare de toda calma
seré infiel, no dependeré
y mataremos al traidor

Mientras su música se siga tocando y escuchando el carpo jamás morirá,
vivirá eternamente en la memoria de todos...
e-mail: zarathustra4321@

            
            
Suggest correction
Creating personal tab
Creating personal tab
You can edit any tab online and save it as your Personal.

You can edit, replace or remove any tab part or add personal notes – all changes will be seen only by you.

Personal tabs can be accessed anytime from any device, even offline.
Learn more »
Give kudos to tab author, rate the tab!
1 2 3 4 5
comments
print report bad tab
guest
Wanna post a correction for this tab? Suggest correction