Oops, an error
Loading. Please wait.

Aquel Gato tab

version 1
version 1

Whole song

by Pappo
230 views 1 this week
no commentswrite comment
1 2 3 4 5
3 more votes to show rating
add to favorites
×
Save as Personal and add changes to this tab that will be seen only by you. Learn more ›
×
You can save this tab as Personal to edit and correct it or add notes. All changes will be seen only by you. Learn more »
launch autoscroll
font size
0
reset
how to read this tab
guitar tuner
edit
Autoscroll
slow
fast
+/-
esc
set tempo
stop
"..Jamas habia visto un raton de semajante tamaño"

A-A-E

        Riff 1
e|-----|---------------|
B|-----|---------------|
G|--4--|----4-4-----4--|
D|--4--|----4-4-----4--| X 4, La cuarta vez lo termina en el E
A|--2--|--0-2-2-0---2--|  y arranca el Riff 2.
E|-----|----------0----|

  Riff 2
e|-3/4-4-x-3/4-4-4--|
B|-2/3-3-x-2/3-3-3--|
G|-3/4-4-x-3/4-4-4--|
D|------------------|
A|------------------|
E|------------------|

Riff 2 X 4

Ella me quiere, ella me ama,
pero me castra como aquel gato,
que sin saberlo se entregó a su dama.

Riff 1 X 4, la cuarta vez lo termina en E y arranca el riff 2

Riff 2 X 4

Aquel elástico le fue puesto
por las dulces manos de dicha dama,
que no te ocurra lo de aquel gato,
que perdió su sexo en aquella cama, HEY!!

Riff 1 X 4, la cuarta vez lo termina en el E
y arranca el estribillo, aca pongo los acordes en orden,
escuchen el tema para sacar el tiempo:

   F5#   F5#-G5-G5#-A5   A5   A5-G5#-G5-F5#   F5#   F5#-G5-G5#5-A5
e|-------------------------------------------------------------------|
B|-------------------------------------------------------------------|
G|-------------------------------------------------------------------|
D|--4-----4--5--6--7-----7-----7--6--5--4------4-----4--5--6--7------|
A|--4-----4--5--6--7-----7-----7--6--5--4------4-----4--5--6--7------|
E|--2-----2--3--4--5-----5-----5--4--3--2------2-----2--3--4--5------|

De ahora en más salvaré mi alma,
me alejaré de toda calma,
de ahora en más seré infiel
y mataremos al traidor.

    E                   A  A#
e|----------------------------|
B|----------------------------|
G|--9-------------------------|
D|--9---9-7-------------7--8--|
A|--7-------9-8-7-------7--8--|
E|----------------10-7--5--6--|

Despues hace una boludes mas o menos asi un par de veces:

e|----------------------------------|
B|----------------------------------|
G|----------------------------------|
D|--11/12-X-11/12-X-11/12--11/-12---|
A|--10/11-X-10/11-X-10/11--10/-11---|
E|----------------------------------|


SOLO


Riff 1

Riff 2

Ella me quiere, ella me ama,
pero me castra como aquel gato,
que sin saberlo se entregó a su dama, EH, EH!

Riff 1
Despues acordes del estribillo como antes.

De ahora en más salvaré mi alma,
me alejaré de toda calma,
de ahora en más seré infiel
y mataremos al traidor...

Eh, te lo dije, no te acerques a ella,
tu juegas, no te das cuenta, te pusieron elástico,
se te secaron las bolas, seguiste jugando,
se te cayeron los huevos, y ahora que?,
eres un gato frustado,
eres un gato castrado!

Termina con saxo y trompeta.
Suggest correction
Creating personal tab
Creating personal tab
You can edit any tab online and save it as your Personal.

You can edit, replace or remove any tab part or add personal notes – all changes will be seen only by you.

Personal tabs can be accessed anytime from any device, even offline.
Learn more »
Give kudos to tab author, rate the tab!
1 2 3 4 5
comments
print report bad tab
guest
Wanna post a correction for this tab? Suggest correction