Oops, an error
Loading. Please wait.

Buen Tiempo bass

by Pappo
45 views 1 this week
no commentswrite comment
1 2 3 4 5
3 more votes to show rating
add to favorites
×
Save as Personal and add changes to this tab that will be seen only by you. Learn more ›
×
You can save this tab as Personal to edit and correct it or add notes. All changes will be seen only by you. Learn more »
launch autoscroll
font size
0
reset
guitar tuner
edit
Autoscroll
slow
fast
+/-
esc
set tempo
stop
Esta transcripcion esta hecha del disco de album ?Aeroblus? (1977)
La afinación del bajo en este tema del disco es un poco mas grave de la
comun(440).
                            (4 veces)
G|--------------------------------------------------------------|
D|--------------------------------------------------------------|
A|--------------------------------------------------------------|
E|--------------------------------------------------3--5--3--0--|
                           (4 veces)
   ?Si queres tener buen tiempo, y conservarlo hasta?
G|--------------------------------------------------------------|
D|----2------2--------2------2--------2------2------------------|
A|--------------------------------------------------------------|
E|0|3------3---0--0|3------3---0--0|3------3---0--0|3--5--3--0--|
    (2 veces)
?donde has?        ?con mis hermanos?
G|--------------|-----------------------9|9|9|9|9|9|9|9|7------------|
D|--------------|----------------------------------------9|8|7-------|
A|--------------|---------------------------------------------10|7/d-|
E|-3--5---3--0--|-3--5---3--0----------------------------------------|
                           (3 veces)
   ?Voy a cruzar esta vez al otro lado del rio?
G|--------------------------------------------------------------|
D|----2------2--------2------2--------2------2------------------|
A|--------------------------------------------------------------|
E|0|3------3---0--0|3------3---0--0|3------3---0--0|3--5--3--0--|
    (2 veces)
?donde has?        ?con mis hermanos?
G|--------------|-----------------------9|9|9|9|9|9|9|9|7-----------------|
D|--------------|----------------------------------------9|8|7------------|
A|--------------|---------------------------------------------10|7--------|
E|-3--5---3--0--|-3--5---3--0---------------------------------------12/d--|
(empieza el solo de viola)
                           (3 veces)
G|--------------------------------------------------------------|
D|----2------2--------2------2--------2------2------------------|
A|--------------------------------------------------------------|
E|0|3------3---0--0|3------3---0--0|3------3---0--0|3--5--3--0--|
    (2 veces)
G|--------------|-----------------------9|9|9|9|9|9|9|9|7------------|
D|--------------|----------------------------------------9|8|7-------|
A|--------------|---------------------------------------------10|7/d-|
E|-3--5---3--0--|-3--5---3--0----------------------------------------|
                           (4 veces)
   ?Si queres tener buen tiempo, y conservarlo hasta?
G|--------------------------------------------------------------|
D|----2------2--------2------2--------2------2------------------|
A|--------------------------------------------------------------|
E|0|3------3---0--0|3------3---0--0|3------3---0--0|3--5--3--0--|
    (2 veces)
?donde has?        ?con mis hermanos?
G|--------------|-----------------------9|9|9|9|9|9|9|9|7-------|
D|--------------|----------------------------------------9|8|7--|
A|--------------|---------------------------------------------10|
E|-3--5---3--0--|-3--5---3--0-----------------------------------|
                  (3 veces)
G|-------------------9|9|9|9|9|9|9|9|7-------|
D|------------------------------------9|8|7--|
A|7--7--7--7---5---------------------------10|
E|--------------7|5|0------------------------|

G|---------------------------------9|7------------------------------------|
D|------------------------------------9-----------------------------------|
A|7--7--7--7---5------0--0--0--0-------10|7--7--7--7/d---0----------------|
E|--------------7|5|0-----------------------------------------------------|
Final
G|---------------------------------------------|-----|
D|---------------------------------------------|-----|
A|-5--5--5--5----------------------------------|-7/d-|
E|--------------------0--0--0--0--0--0--0--0...|-----|

Notas:

/d: slide down
x|x: por ej. 9|7 significa tocar el traste 9 y 7 consecutivamente rapido
... : lo puse para no poner todas las veces que se repite. Repitan la nota
      antecede a este signo las veces que quieran.

Que la disfruten y aguante el carpo!!!!

Buen tiempo (Pappo)

Si querés tener buen tiempo,
y conservarlo hasta tu fin,
habrás que ver lo que pasa,
alrededor de tu existir.

En el abismo,
dónde yo he estado,
nunca he mentido,
con mis hermanos.

Voy a cruzar esta vez
al otro lado del río,
para ver en qué andan los fantasmas
de mi corazón.

En el abismo,
dónde yo he estado,
nunca he mentido,
con mis hermanos

Mientras su musica se siga tocando y escuchando el carpo jamas morira,
vivira eternamente en la memoria de todos...
e-mail: zarathustra4321@

            
            
Suggest correction
Creating personal tab
Creating personal tab
You can edit any tab online and save it as your Personal.

You can edit, replace or remove any tab part or add personal notes – all changes will be seen only by you.

Personal tabs can be accessed anytime from any device, even offline.
Learn more »
Give kudos to tab author, rate the tab!
1 2 3 4 5
comments
print report bad tab
guest
Wanna post a correction for this tab? Suggest correction