Oops, an error
Loading. Please wait.

Cabeza De Martillo bass

by Pappo
92 views 3 this week
no commentswrite comment
1 2 3 4 5
3 more votes to show rating
add to favorites
×
Save as Personal and add changes to this tab that will be seen only by you. Learn more ›
×
You can save this tab as Personal to edit and correct it or add notes. All changes will be seen only by you. Learn more »
launch autoscroll
font size
0
reset
guitar tuner
edit
Autoscroll
slow
fast
+/-
esc
set tempo
stop
Esta transcripcion esta hecha del disco "El Riff" que contiene
temas de dos bandas en la que participo Pappo: Patrulha do Espaco
y The widow makers. En este disco figura a lo ultimo este tema que
fue regrabado luego por Animal en "Pappo y amigos". Me parecio
mejor transcribirlo desde su version original a pesar de que tenga
una muy pobre calidad de sonido. Pruebenla!!

G|------------------------------------------------------------------------
D|------------------------------------------------------------------------
A|------------------------------------------------------------------------
E|-3--------------------------5--------------------------0----------------

G|------------------------------------------------------------------------
D|------------------------------------------------------------------------
A|------------------------------------------------------------------------
E|-0-----------------0-----------------0-----------------0----------------
          (3 veces)
G|------------------------------|-------------------------------|
D|------------------------------|-------------------------------|
A|-----------1-2----2---1-------|-----------1-2----2---1--------|
E|-0---0-3-0---------------3-2--|-0---0-3-0---------------3-2-1-|
            (4 veces)
        ?Debo destruir lo que??
G|---------------------------------|
D|---------------------------------|
A|---------------------------------|
E|-0-----0-0-0-0-0-0-0-3-2-0-5-3---|
?El futuro esta       disipandose??
G|-----------------------------------------------------|
D|-----------------------------------------------------|
A|-7---7------------------7---7------4-5--4------------|
E|----------7---6------------------7--------7-6--3-2-0-|
?Y yo estoy           encerrado aquí?
G|-----------------------------------------------------------|
D|-----------------------------------------------------------|
A|-7---7------------------7---7------4-5--4------7-----------|
E|----------7---6------------------7--------7-6----5-3--5-3--|
          (3 veces)
               ?Como un enfermo??
G|------------------------------|-------------------------------|
D|------------------------------|-------------------------------|
A|-----------1-2----2---1-------|-----------1-2----2---1--------|
E|-0---0-3-0---------------3-2--|-0---0-3-0---------------3-2-1-|
            (4 veces)
            ?Muchos de ellos están??
G|---------------------------------|
D|---------------------------------|
A|---------------------------------|
E|-0-----0-0-0-0-0-0-0-3-2-0-5-3---|
?Y mi ser                se va convirtiendo??
G|-----------------------------------------------------|
D|-----------------------------------------------------|
A|-7---7------------------7---7------4-5--4------------|
E|----------7---6------------------7--------7-6--3-2-0-|
?En una gran masa
G|-----------------------------------------------------------|
D|-----------------------------------------------------------|
A|-7---7------------------7---7------4-5--4------7-----------|
E|----------7---6------------------7--------7-6----5-3--5-3--|
          (4 veces)
                ?De intoxicación?
G|------------------------------|
D|------------------------------|
A|-----------1-2----2---1-------|
E|-0---0-3-0---------------3-2--|
(empieza el solo de viola)
G|---------------------------------------------------------------
D|---------------------------------------------------------------
A|-------------------------------------------------------------1-
E|-0------------------------------3----3-3-3-3-3-3-3-3-3-3-1-3---

G|---------------------------------------------------------------
D|---------------------------------------------------------------
A|-------------------------------------------------------------3-
E|-3----3-3-3-3-3-3-3-3-3-3-3-3-3-5----5-5-5-5-5-5-5-5-5-5-3-5---

G|---------------------------------------------------------------
D|---------------------------------------------------------------
A|-------------------------------------------------------------5-
E|-5----5-5-5-5-5-5-5-5-5-5-5--5--7----7-7-7-7-7-7-7-7-7-7-5-7---

G|-------------------------------
D|-------------------------------
A|-------------------------------
E|-7----7-7-7-7-7-7-7-7-7-7-7-5-3
             (4 veces)
G|---------------------------------|
D|---------------------------------|
A|---------------------------------|
E|-0-----0-0-0-0-0-0-0-3-2-0-5-3---|
?Y mi ser                se va convirtiendo??
G|-----------------------------------------------------|
D|-----------------------------------------------------|
A|-7---7------------------7---7------4-5--4------------|
E|----------7---6------------------7--------7-6--3-2-0-|
?En una gran masa
G|-----------------------------------------------------------|
D|-----------------------------------------------------------|
A|-7---7------------------7---7------4-5--4------7-----------|
E|----------7---6------------------7--------7-6----5-3--5-3--|
           (4 veces)
                ?De intoxicación?
G|------------------------------|
D|------------------------------|
A|-----------1-2----2---1-------|
E|-0---0-3-0---------------3-2--|
             (4 veces)
            ?Reclaman venganza desde sus??
G|---------------------------------|
D|---------------------------------|
A|---------------------------------|
E|-0-----0-0-0-0-0-0-0-3-2-0-5-3---|
?Y el mar          castiga a su presa??
G|-----------------------------------------------------|
D|-----------------------------------------------------|
A|-7---7------------------7---7------4-5--4------------|
E|----------7---6------------------7--------7-6--3-2-0-|
?Después de        su muerte, su muerte??
G|-----------------------------------------------------------|
D|-----------------------------------------------------------|
A|-7---7------------------7---7------4-5--4------7-----------|
E|----------7---6------------------7--------7-6----5-3--5-3--|
           (15 veces)
G|------------------------------|
D|------------------------------|
A|-----------1-2----2---1-------|
E|-0---0-3-0---------------3-2--|

G|---------------------------------------------------------|-------------|
D|---------------------------------------------------------|-------------|
A|-----------1-2----2--------------------------------------|-7/d---------|
E|-0---0-3-0---------------6--5--3--2--1--0----------------|-------------|

Cabeza de martillo (Pappo)

Debo destruir lo que está en mi mente,
lejos de la gran confusión;
el futuro está disipándose,
y yo estoy encerrado aquí...

Como un enfermo mental!
enfermo mental!

Muchos de ellos están volviéndose insanos,
sin tener lugar ni nada a su vez;
y mi ser se va convirtiendo
en una gran masa de...

Intoxicación!, intoxicación!

Y mi ser se va convirtiendo
en una gran masa de...

Intoxicación!, intoxicación!

Reclaman venganza desde sus tumbas,
no por eso van a estar mejor;
y el mar castiga su presa,
después de su...

Muerte!, muerte!,
muerte!, muerte!!

Mientras su musica se siga tocando y escuchando el carpo jamas morira,
vivira eternamente en la memoria de todos...
e-mail: zarathustra4321@

            
            
Suggest correction
Creating personal tab
Creating personal tab
You can edit any tab online and save it as your Personal.

You can edit, replace or remove any tab part or add personal notes – all changes will be seen only by you.

Personal tabs can be accessed anytime from any device, even offline.
Learn more »
Give kudos to tab author, rate the tab!
1 2 3 4 5
comments
print report bad tab
guest
Wanna post a correction for this tab? Suggest correction