Oops, an error
Loading. Please wait.

Duendes bass

by Pappo
29 views 1 this week
no commentswrite comment
1 2 3 4 5
3 more votes to show rating
add to favorites
×
Save as Personal and add changes to this tab that will be seen only by you. Learn more ›
×
You can save this tab as Personal to edit and correct it or add notes. All changes will be seen only by you. Learn more »
launch autoscroll
font size
0
reset
guitar tuner
edit
Autoscroll
slow
fast
+/-
esc
set tempo
stop
Tema facil, son tres acordes: Sol Re y La (2 vueltas). Puse todos los compases
por las dudas y porque que tenia tiempo.
Empieza tocando la viola solo y recien en el 0:48 entra el bajo.

   -          -          -          -          -          -          -
 ?tiempo después, volvi a ese mismo lugar,y no podia soportar decirtelo?
G|-----------------------------------------------------------------------------
D|--------------------------------7--------7-----------------------------------
A|------------5------5h7----------------------------------5--------7-----------
E|-3---------------------5----------5--------5-3---------------------5--------0

   -          -          -          -          -          -          -
?que alguien esta,que alguien esta observandonos y amandonos a la vez, eh eh?
G|-----------------------------------------------------------------------------
D|-----------------------------------------------------------------------------
A|---------------------0|5------5h7--------------------------------0|5------5h7
E|-5----0|5-7-3---------------------5--------0-5----0|7-5-3--------------------

   -          -          -          -          -          -          -
?mmmm?                     ?seres que, no podrian?                   ?soportar?
G|-----------------------------------------------------------------------------
D|------7----------7---5-------------------------------------------------------
A|----------------------------------5------5h7---------------------------------
E|-5--------0|5----------3---------------------5----------5--0|8-7-5-3---------

   -          -          -          -          -          -          -
?el peso de las armas,que matan sin saber,sin saber a quien ni por que,por que?
G|-----------------------------------------------------------------------------
D|-----------------------7------------------------------5-7--------------------
A|-5--------7-----------------7--------------0-5------7-----0------0-----------
E|------------5-------------------5-3--------------------------------5------5-7

   -          -          -          -          -          -          -
?matan sin saber?                             ?es como algo dentro de mi mi mi?
G|-----------------------------------------------------------------------------
D|-------------------5h7-------------------------------------------------------
A|----------0|5---5h7-----------------------------------0|5------5h7-----------
E|-3---------------------5--------5-5------7-5-3---------------------5--------5

   -          -          -          -          -          -          -
?mi, duendes de emocion?                                ?ahhhh, amame?
G|-----------------------------------------------------------------------------
D|-----------------------------------------------------------------------------
A|---------------------0|5------5h7--------------------------------0|5---------
E|-5----0|7-5-3---------------------5--------5-5----8-7-5-3-------------------0

   -          -          -          -          -          -          -
                     ?son, duendes?                    ?duendes del Sol?
G|-----------------------------------------------------------------------------
D|---------7-------------------------------------------------------------------
A|--------------------------------0|5------5h7--------------------------------0
E|-5----------5--0|7-5-3-3---------------------5--------5-5------7-5-3---------

   -          -
G|-----------------------------------
D|-----------------------------------
A|-5------5h7------------------------
E|------------5----------------------

   h: hammer on (ligado)
x|x : tocar las dos notas consecutivamente rápido por Ej. 0|5

Duendes (Pappo)

Hoy desperté en un lugar mágico,
y recordé mi primer blues, uh, uh;
hoy desperté en un lugar donde los pájaros,
sienten la emoción

Tiempo después volví a ese mismo lugar
y no podía soportar decírtelo,
que alguien está, que alguien está observándos,
y amándonos, amándonos, amándonos a la vez, eh, eh

Seres que no podrían soportar el peso de las armas,
que matan sin saber, sin saber a quién, ni por qué, porque,
matan sin saber

Es como algo dentro de mí, mí, mí, mí, mí, mí,
duendes de emoción
oh, ámame...
son duendes, duendes del Sol

Mientras su musica se siga tocando y escuchando el carpo jamas morira,
vivira eternamente en la memoria de todos.

            
            
Suggest correction
Creating personal tab
Creating personal tab
You can edit any tab online and save it as your Personal.

You can edit, replace or remove any tab part or add personal notes – all changes will be seen only by you.

Personal tabs can be accessed anytime from any device, even offline.
Learn more »
Give kudos to tab author, rate the tab!
1 2 3 4 5
comments
print report bad tab
guest
Wanna post a correction for this tab? Suggest correction