Oops, an error
Loading. Please wait.

El Brujo Y El Tiempo bass

by Pappo
44 views 1 this week
no commentswrite comment
1 2 3 4 5
3 more votes to show rating
add to favorites
×
Save as Personal and add changes to this tab that will be seen only by you. Learn more ›
×
You can save this tab as Personal to edit and correct it or add notes. All changes will be seen only by you. Learn more »
launch autoscroll
font size
0
reset
guitar tuner
edit
Autoscroll
slow
fast
+/-
esc
set tempo
stop
Esta trancripcion pertenece a la version del disco ?Pappo y amigos?.
Tiene corregidos algunos errores de la anterior tablatura de este tema
que yo había publicado.
ESTA SI ESTA BIEN. Pruebenla y AGUANTE PAPPO!!!

G|-------------------------------------------
D|-------------------------------------------
A|---3---3---3---3-------3---3---3---3-------
E|-5---5---5---5-------5---5---5---5-----3---

G|------------------------------------------------------------------------
D|------------------------------------------------------------------------
A|--------------3---------------------------3---5--5--5--5--3-5-3---2-----
E|-5--5--5--5--5----3---5--5--5--5--3-5-0-----------------------------3---

G|------------------------
D|------------------------
A|---3---3---3---3--------
E|-5---5---5---5------3---
  ?Trio de tres unidades?                  ?a que la locura me pase?
G|------------------------------------------------------------------------
D|------------------------------------------------------------------------
A|--------------3---------------------------3---5--5--5--5--3-5-3---2-----
E|-5--5--5--5--5----3---5--5--5--5--3-5-0-----------------------------3---

G|----------------------------------------------------
D|------------------------10----10----10----10--------
A|---3---3---3---3-----12----12----12----12-------4---
E|-5---5---5---5--------------------------------------
  ?Y todos mis pensamientos?
G|------------------------------------------------
D|--------------3---------------------------------
A|-5--5--5--5--5----3---5--5--5--5--3-5-3---0-3---
E|------------------------------------------------
 ?si debo dar otra vuelta?     ?en mis pies?
G|---------------------------------------------------
D|----------------3----------------------5-3---------
A|-5--5--5--5--3-5----0-3---5--5--5--5--3------0-3---
E|---------------------------------------------------

G|-----------------------
D|-----------------------
A|-------6-----5-----3---
E|-0---------------------

G|-------------------------------------------
D|-------------------------------------------
A|---3---3---3---3-------3---3---3---3-------
E|-5---5---5---5-------5---5---5---5-----3---
(Sobre el solo del Tano Marciello)
G|------------------------------------------------------------------------
D|------------------------------------------------------------------------
A|----------------3---------------------------3---5--5--5--5--3-5-3---2---
E|-5--5--5--5--3-5----3---5--5--5--5--3-5-0-----------------------------3-
1:18                                      (esto lo hace al final del
G|-----------------------------------------14-12------------- compas)
D|------------------------10----10----10--------14-13|12-----
A|---3---3---3---3-----------12----12----12-------------15|14
E|-5---5---5---5---------------------------------------------
(Sobre el solo de Pappo)
G|------------------------------------------------------------------------
D|------------------------------------------------------------------------
A|(0)-------------3---------------------------3---5--5--5--5--3-5-3---2---
E|-5--5--5--5--3-5----3---5--5--5--5--3-5-0-----------------------------3-

G|-------------------------------------------
D|-------------------------------------------
A|---3---3---3---3-------3---3---3---3----4--
E|-5---5---5---5-------5---5---5---5---------
?De tanto pensar en el brujo??
G|------------------------------------------------
D|--------------3--------------------5-3----------
A|-5--5--5--5--5----3---5--5--5--5--3-------5-----
E|--------------------------------------------5/d-
?podrian ser solo?    ?que van recorriendo mi ser?
G|------------------------------------------------
D|--------------3--------------------5-3----------
A|-5--5--5--5--5----3---5--5--5--5--3-------5-----
E|--------------------------------------------5/d-

G|-----------------------
D|-----------------------
A|-------6-----5-----3---
E|-0---------------------

G|-------------------------------------------
D|-------------------------------------------
A|---3---3---3---3-------3---3---3---3-------
E|-5---5---5---5-------5---5---5---5-----3---
  ?Trio de tres unidades?                  ?a que la locura me pase?
G|------------------------------------------------------------------------
D|------------------------------------------------------------------------
A|--------------3---------------------------3---5--5--5--5--3-5-3---2-----
E|-5--5--5--5--5----3---5--5--5--5--3-5-0-----------------------------3---
        (3 veces)
G|---------------------|--------------------------------------|
D|---------------------|--------------------------------------|
A|---3---3---3---3-----|---3---3---3---3----------------------|
E|-5---5---5---5-------|-5---5---5---5----3--------3----5-----|

(x): nota opcional
x|x: por ej 13|12 significa tocar ambas notas consecutivamente rapido
x/d: slide down

El Brujo y el Tiempo (Pappo)

Trío de tres unidades,
dónde podría esperar,
a que la locura me pase.

Y todos mis pensamientos,
son que tengo que saber,
si debo dar otra vuelta,
o estar nuevamente en mis pies.

De tanto pensar en el brujo,
creo que el amanecer,
podrían ser sólo dibujos,
que van recorriendo mi ser,
oh no!

Trío de tres unidades,
dónde podría esperar,
a que la locura me pase.

Mientras su musica se siga tocando y escuchando el carpo jamas morira,
vivira eternamente en la memoria de todos...
e-mail: zarathustra4321@
Suggest correction
Creating personal tab
Creating personal tab
You can edit any tab online and save it as your Personal.

You can edit, replace or remove any tab part or add personal notes – all changes will be seen only by you.

Personal tabs can be accessed anytime from any device, even offline.
Learn more »
Give kudos to tab author, rate the tab!
1 2 3 4 5
comments
print report bad tab
guest
Wanna post a correction for this tab? Suggest correction