Oops, an error
Loading. Please wait.

El Brujo Y El Tiempo tab

by Pappo
74 views 1 this week
no commentswrite comment
1 2 3 4 5
3 more votes to show rating
add to favorites
×
Save as Personal and add changes to this tab that will be seen only by you. Learn more ›
×
You can save this tab as Personal to edit and correct it or add notes. All changes will be seen only by you. Learn more »
launch autoscroll
font size
0
reset
how to read this tab
guitar tuner
edit
Autoscroll
slow
fast
+/-
esc
set tempo
stop
INTRO:

A5-C5-A5-C5-A5-C5-A5-C5x2
G5...

RIFF1

A5-C5-A5-C5-A5-C5-A5-C5--G5

Río de tres unidades      |
a dónde podría esperar    |CON RIFF1
A que LA locura me pase.  |

A5-C5-A5-C5-A5-C5-A5-C5x2
C5...
                        ________
Y todos mis pensamientos        |
son que tengo que saber         |
si debo dar otra vuelta         |CON RIFF2
o estar nuevamente en mis pies._|

A5-C5-A5-C5-A5-C5-A5-C5x2
G5...

SOLO:
RIFF1
A5-C5-A5-C5-A5-C5-A5-C5x2
G5...
RIFF1
A5-C5-A5-C5-A5-C5-A5-C5x2
C5...
                          __
De tanto pensar en el brujo |
creo que el amanecer        |CON RIFF2
podría ser solo dibujos     |
que van recorriendo mi ser._|

A5-C5-A5-C5-A5-C5-A5-C5x2
G5...
                     ____
Río de tres unidades     |
a dónde podría esperar   |CON RIFF1
a que la locura me pase._|

FINAL:

A5-C5-A5-C5-A5-C5-A5-C5x4
G5...A5

RIFF 1:

e|---------------------------------------------------------|
B|---------------------------------------------------------|
G|---2-2-2-2-2-5---------2-2-2-2-2----5--7-7-7-7-7-5--5----|
D|---2-2-2-2-2-5---5-----2-2-2-2-2-2--5--7-7-7-7-7-5--5-5--|
A|---0-0-0-0-0-3---5-----0-0-0-0-0-2--3--5-5-5-5-5-3--3-5--|
E|-----------------3---------------0--------------------3--|

RIFF 2:

e|-------------------------------------------------
B|-------------------------------------------------
G|-7-7-7-7-7-10--5--7-7-7-7-7-5--5--5-5-5-5-5-10---
D|-7-7-7-7-7-10--5--7-7-7-7-7-5--5--5-5-5-5-5-10---
A|-5-5-5-5-5-8---3--5-5-5-5-5-0--3--7-7-7-7-7-8----
E|-------------------------------------------------

e|-----------------------------|
B|-----------------------------|
G|--5--5-5-5-5-5-10---9-8-7-5--|
D|--5--5-5-5-5-5-10---9-8-7-5--|
A|--3--7-7-7-7-7-8----7-6-5-3--|
E|-----------------------------|
Suggest correction
Creating personal tab
Creating personal tab
You can edit any tab online and save it as your Personal.

You can edit, replace or remove any tab part or add personal notes – all changes will be seen only by you.

Personal tabs can be accessed anytime from any device, even offline.
Learn more »
Give kudos to tab author, rate the tab!
1 2 3 4 5
comments
print report bad tab
guest
Wanna post a correction for this tab? Suggest correction