Oops, an error
Loading. Please wait.

El Hombre Suburbano tab

version 3
version 3

Whole song

by Pappo
141 views 1 this week
no commentswrite comment
1 2 3 4 5
3 more votes to show rating
add to favorites
×
Save as Personal and add changes to this tab that will be seen only by you. Learn more ›
×
You can save this tab as Personal to edit and correct it or add notes. All changes will be seen only by you. Learn more »
launch autoscroll
font size
0
reset
how to read this tab
guitar tuner
edit
Autoscroll
slow
fast
+/-
esc
set tempo
stop
INTRO:

e|-----------------------------------------------------------------------
B|---------------------------------------10-13b--13-12-10--10-12--13b----
G|-----6---6h7-6---6h7-6--------------/11------11--------11-----11-------
D|---7---7-------7-------7-5---------------------------------------------
A|---------------------------7-6-5---------------------------------------
E|---------------------------------8-------------------------------------

e|--12*10----------------------------------------------------------------
B|--------13b~~--13-12-10--10-/10--10-8-------------------8-7-10-7-10-7--
G|-----------------------11------------9-8-7----------7-10---------------
D|------------------------------------------10-7--7-10-------------------
A|----------------------------------------------10-----------------------
E|-----------------------------------------------------------------------

e|---------------------12-----9---8---7--5-------------------------------
B|--/13-12-10--12-12/14--10----------------------------------------------
G|-----------11-------------/9--/8--/7-----------------------------------
D|-----------------------------------------7-----------------------------
A|-------------------------------------------7-7--10---------------------
E|-----------------------------------------------------------------------

Estamos en el tiempo en que el ser humano vive con razon de ser
Con solo unas palabras nunca se puede resolver
Y pega una trompada, lo tira todo
Se cree ya muy listo por su modo de ser

e|------9---8---7--5-----------------------------------------------------
B|-----------------------------------------------------------------------
G|----/9--/8--/7---------------------------------------------------------
D|--------------------7--------------------------------------------------
A|----------------------7-7---10-----------------------------------------
E|-----------------------------------------------------------------------

Un hombre sin historia, sin tiempo y sin memoria puede reaccionar asi
Pero no se da cuenta su personalidad en venta esta
El hombre suburbano sigue su rutina
Sin darse cuenta que su vida terminara

e|------9---8---7--5-----------------------------------------------------
B|-----------------------------------------------------------------------
G|----/9--/8--/7---------------------------------------------------------
D|--------------------7--------------------------------------------------
A|----------------------7-7---10-----------------------------------------
E|-----------------------------------------------------------------------

SOLO (que lo agregare próximamente)


Un hombre sin historia, sin tiempo y sin memoria puede reaccionar asi
Pero no se da cuenta su personalidad en venta esta
El hombre suburbano sigue su rutina
Sin darse cuenta que su vida terminara


Final:

e|-----------------------------------------------------------------------
B|---------------------------8-------------------------------------------
G|-------7-7h9*7----7----7h9---7-----------------------------------------
D|--7-10---------10---10---------10-----7--------------------------------
A|--------------------------------------7--------------------------------
E|--------------------------------------5--------------------------------


Me costo mas pasarla que sacarla xD creanlo o no
Besos para ...para todos! Para la nona, para rochi (que fue a oasis),
agos, agus, cami y mayra que las amo nenas!!!
chau
Suggest correction
Creating personal tab
Creating personal tab
You can edit any tab online and save it as your Personal.

You can edit, replace or remove any tab part or add personal notes – all changes will be seen only by you.

Personal tabs can be accessed anytime from any device, even offline.
Learn more »
Give kudos to tab author, rate the tab!
1 2 3 4 5
comments
print report bad tab
guest
Wanna post a correction for this tab? Suggest correction