Oops, an error
Loading. Please wait.

Es Algo De Amor bass

by Pappo
20 views 1 this week
no commentswrite comment
1 2 3 4 5
3 more votes to show rating
add to favorites
×
Save as Personal and add changes to this tab that will be seen only by you. Learn more ›
×
You can save this tab as Personal to edit and correct it or add notes. All changes will be seen only by you. Learn more »
launch autoscroll
font size
0
reset
guitar tuner
edit
Autoscroll
slow
fast
+/-
esc
set tempo
stop
Los guiones en algunas partes marcan el comienzo de cada compas
La parte marcada al principio (mas la que empieza en el 1:29, donde basicamente
hace pentatonica de Fa#) sirve para todo el tema, por las dudas yo detalle todo
el tema.


     (4 veces)   ?Nadie podra saber agradecer,nadie sabe bien como es?  
G|----------------|----------------------------------------             |
D|------------10--|----------------------------------------             |
A|-9--10-11-12----|-2|2-2-2-2-2-2-2-----2|2-2-2-2-2-2-2----             |
E|----------------|-----------------0|0-----------------0|0             |
                                                                        |
?Nadie escapa de la realidad?     ?entre tu yo?                         |
G|----------------2-3|4----------------------------------               |
D|-------------------------------------------------------               |
A|-2|2-2-2-2-2-2-2------2|2-2-2-2-2-2-2------------------               |
E|--------------------------------------0-0-0-0-0-0-0-0|0               |
                                                                        |
              ?es algo de amor?                                         |
G|-------------------------------------------------------------------   |
D|-------------------------------------------------------------------   |
A|-------------------------------------------------------------------   |
E|-0--0|0-0-0-0-0|0-0|4-5|6-7--7|7-7-7-7-7-7-7|7-7--7|7-7-7-7-7-7-7|7   |
                                                                        |
G|----------------------------                                          |
D|----------------------------                                          |
A|-9---8---7------------------                                          |
E|-------------10---5-7-------                                          /

G|----------------------------------12-----------------------------------
D|------------10--------------10--10--10-------------10--------------10--
A|-9--10-11-12-----9--10-11-12------------9--10-11-12-----9--10-11-12----
E|-----------------------------------------------------------------------

?No regreses mas a la ciudad, quedate conmigo un dia mas?
G|------------------------------------2-3|3-4|4-----------------
D|--------------------------------------------------------------
A|-2|2-2-2-2-2-2-2-----2|2-2-2-2-2-2-2---------2|2-2-2-2-2-2----
E|-----------------0|0---------------------------------------0|0

?se que tu no quieres regresar con tu amigos?             ?que estan en?
G|---------------------------------------------------------------------
D|---------------------------------------------------------------------
A|-2|2-2|2-2-2-2-2-10-9|8-7|7------------------------------------------
E|---------------------------0|0-0-0-0-0-0-0|0-0--0|0-0-0-0-0|0-0|4-5|6

?Africa?
G|----------------------------------------------------------------------
D|----------------------------------------------------------------------
A|-------------------------------------------9---8---7------------------
E|-7--7|7-7-7-7-7-7-7|7-7--7|7-7-7-7-7-7-7|7-------------10---5-7-------

1:29
   -                            -
G|-------------------------------------------------------
D|------------------------------------------------------2
A|---------------------------------------------------2-4-
E|-2--2|2--2-2|2--2-0|2--2-0|0--2-2|2--2-2|2--2-2|2------

1:35
   -                            -
G|---------------------------------------------------------
D|-4--4|2------------------------------------4-4|2---------
A|--------------------------------------------------4-0|2--
E|--------2-2|2--2-2|2--2-0|0--2-2|2--2-2|2---------------2

1:41
   -                            -
G|--------------------------------------------------------
D|--------------------------------------------------------
A|--------------------------------------------------------
E|-2--2|2--2-2|2--2-2|2--2-0|0--2-2|2--2-2|2--2-0|2--2-0|0

1:47
   -                            -
G|------------------------------------------------------------------------
D|------------------------------------------------------------------------
A|-------------------------------------------------1--2--3-4---5---6---7--
E|-2--2|2--2-2|2--2-2|2--2-0|0--2-2|2--2-2|2--0|2-------------------------


G|--------------------------------12-----------------------------------
D|------------10--------------10----10-------------10--------------10--
A|-9--10-11-12-----9--10-11-12----------9--10-11-12-----9--10-11-12----
E|---------------------------------------------------------------------

?Nadie podra saber agradecer, nadie sabe bien como es?
G|--------------------------------------------------------
D|--------------------------------------------------------
A|-2|2-2-2-2-2-2-2-2|2-2-2-2-2-2-2-----2|2-2-2-2-2-2-2----
E|---------------------------------0|0-----------------0|0

?Nadie podrá saber de lo que ocurre entre tú y yo? ?es algo de amor?
G|--------------------------------------------------------------
D|---------------7-8|8-9----------------------------------------
A|-2|2-2-2-2-2-2------------------------------------------------
E|----------------------0-0-0-0-0-0-0-0|0-0--0|0-0-0-0-0-0|4-5|6

G|---------------------------------------------------------------------
D|---------------------------------------------------------------------
A|------------------------------------------9---8---7------------------
E|-7--7|7-7-7-7-7-7-7|7-7--7|7-7-7-7-7-7-7|7------------10---5-7-------

G|-----------------------------
D|------------10---------------
A|-9--10-11-12-----------------
E|-----------------------------

x|x : tocar las dos notas consecutivamente rápido por Ej. 7|7

Es algo de amor (Pappo)

Nadie podrá saber agradecer,
nadie sabe bien cómo es,
nadie escapa de la realidad,
nada podrá explicar lo que nos queda entre tú y yo,
es algo de amor.

No regreses más a la ciudad,
quédate conmigo un día más,
es en vano huir de la verdad,
se que tú no quieres regresar con tus amigos,
que están en África.

Nadie podrá saber agradecer,
nadie sabe bien cómo es,
nadie escapa de la realidad,
nadie podrá saber de lo que ocurre entre tú y yo, nena,
es algo de amor.

Mientras su musica se siga tocando y escuchando el carpo jamas morira,
vivira eternamente en la memoria de todos.

            
            
Suggest correction
Creating personal tab
Creating personal tab
You can edit any tab online and save it as your Personal.

You can edit, replace or remove any tab part or add personal notes – all changes will be seen only by you.

Personal tabs can be accessed anytime from any device, even offline.
Learn more »
Give kudos to tab author, rate the tab!
1 2 3 4 5
comments
print report bad tab
guest
Wanna post a correction for this tab? Suggest correction