Oops, an error
Loading. Please wait.

Insoluble bass

by Pappo
78 views 1 this week
no commentswrite comment
1 2 3 4 5
3 more votes to show rating
add to favorites
×
Save as Personal and add changes to this tab that will be seen only by you. Learn more ›
×
You can save this tab as Personal to edit and correct it or add notes. All changes will be seen only by you. Learn more »
launch autoscroll
font size
0
reset
guitar tuner
edit
Autoscroll
slow
fast
+/-
esc
set tempo
stop
En la parte final cuando el bajo solea puse guiones al comienzo de cada tiempo
en negra(aproximadamente 1 segundo).Si mi oido no me falla usa notas de la
escala pentatonica de Re menor y cromatismos.


G|------------------------
D|-5-3|5-3-------------3|5
A|--------5-4|3--3-4|5----
E|--------------6---------

G|----------------------------------------
D|----------------------------------------
A|-----------------------------5--4--3--1-
E|-3--3--3--3-3-3--3--1|3-1|3-------------

G|---------------------------------------------------
D|---------------------------------------------------
A|---------------------------------------5--4--3--1--
E|-1|3-1|3-3--3--1|3-1|3--3--3--1|3-1|3--------------

                     (2 vueltas)
?El sacerdote que brindo la misa para la moral?
G|---------------------------------------------------
D|---------------------------------------------------
A|---------------------------------------5--4--3--1--
E|-1|3-1|3-3--3--1|3-1|3--3--3--1|3-1|3--------------

 ?por que?     ?por que?     ?por que imagine?         ?por que?
G|---------------------------------------------------------------------
D|---------------------------------------------------------------------
A|-----------------------------------1h3-1--------1--3-1--------1--3-1-
E|-1--3--3--3-3--1--3--3--3-3--1--3---------1--3----3----1--3--3--3----

 ?por que?     ?por que imagine?          ?por que?    ?por que?
G|---------------------------------------------------------------------
D|--------------------------------------------------------------3--5-3-
A|-------1--3h5--------1h3-1---------1--3-1|3--5--5--5---3--5--5------5
E|-1--3----3-----1--3---------1--3--3--3-------------------------------

 ?por que imagine?         ?por que?     ?por que?     ?por que imagine?
G|---------------------7-5-------------------------------------------------
D|--------5--3------------7---------3--5-3--------5--3---------5--3--------
A|-3--5--5----5--3--5--------3--5--5--5----3--5-------5--3--5------5--3--5-
E|-------------------------------------------------------------------------

0:46                             ?whaaaa!?
G|-----------------------------------------------------------------------------
D|-----------------------------------------------------------------------------
A|-5--5--3h5--5--5--5--5--5--5--5--5--5--5--5--5--5--5--5--5--5--5--5--5--5--5-
E|-----------------------------------------------------------------------------

G|---------------------------------------------
D|---------------------------------------------
A|-5--5--5--5--5--5--5--5--5--5--5--5--5--5--5-
E|---------------------------------------------

1:00
G|------------------5|3------------------
D|-5-3|5-3--------------5|3-------------5
A|--------5-4|3-------------5|4-3|1--1-5-
E|--------------6|3-----------------3----

G|-------------------------------------------
D|-------------------------------------------
A|-------------------------------5--4--3--1--
E|-3---3--1|3-1|3-3--3--1|3-1|3--------------

G|---------------------------------------------------
D|---------------------------------------------------
A|---------------------------------------5--4--3--1--
E|-1|3-1|3-3--3--1|3-1|3--3--3--1|3-1|3--------------

                     (2 vueltas)
?no quiero que sigamos con la duda de que asi esta bien?
G|---------------------------------------------------
D|---------------------------------------------------
A|---------------------------------------5--4--3--1--
E|-1|3-1|3-3--3--1|3-1|3--3--3--1|3-1|3--------------

?por que?     ?por que?     ?por que imagine?           ?por que?
G|----------------------------------------------------------------------
D|----------------------------------------------------------------------
A|-----------------------------------1h3-1---------1--3-1--------1--3-1-
E|-1--3--3--3-3--1--3--3--3-3--1--3---------1--3--3--3----1--3--3--3----

?por que?       ?por que imagine?          ?por que?    ?por que?
G|----------------------------------------------------------------------
D|----------------------------------------------------------------------
A|--------1--3-1--------1h3-1---------1--3-1|3--5--5--5---3--5--5--5--
E|-1--3--3--3-----1--3---------1--3--3--3-------------------------------

?por que imagine?             ?por que?    ?por que?    ?por que imagine?
G|--------------------------------------------------------------------------
D|--------5--3----------3--5|3-----------------------------------5-3--------
A|-3--5--5----5--3--5--5--5---5|3--5--5--5---3--5--5--5---3--5--5---5--3--5-
E|--------------------------------------------------------------------------

1:48
   -       -        -       -        -       -          -          -
G|-7~~-----7~----7--7--777-7---------7-5-------------------------------------
D|--------------------------5h7---7-----7-5---5-5h7-3-5-5p3--------3-----6--5-
A|-----------------------------5-5--5------8-8-------------5-3--5-----5-5----
E|---------------------------------------------------------------------------

   -       -          -        -           -           -         -
G|-----------------------------------------------------------5-6|7---------
D|-3-5|3-----------------------3-0-5h6-5-3-5|3---------3-3/7--------7--7---
A|---------3h5-3h5--5|3--3--5------------------5|3--5----------------5----5
E|-------------------------------------------------------------------------

   -       -         -         -         -        -        -        -
G|---------------------------------------7-----7-----7777--7------66666666666
D|-8----8------8-7-5-3-5---------5h7-3-0-7-3-0-7--3--------------------------
A|----5----5-5------------5|3-5----------------------------------------------
E|---------------------------------------------------------------------------

   -          -         -        -        -       -           -
G|-7--------------------------------------7--------------------------------
D|--5-7-3|5------3--------3-3-------3--------3---------5--------5|6|77--5--
A|----------3|5-----5-3|5----5-3|5-----5-3------5-3|5-----3|5-3------------
E|-------------------------------------------------------------------------

   -          -         -        -         -        -           -
G|-------------------------------5--6-7------5---5----9p7-10/12\10---9-10
D|-3-5|3---------3----5---4---7-----------------7------------------------
A|--------5-3|5-----5-------55-5-----------------------------------------
E|-----------------------------------------------------------------------

   -            -        -       -           -               -
G|-9-12-10|9-10|9--7--7--9-7----12-10|9-------------12|10-9----------10-
D|--------------------7-----------------10|12--------------12-10|12-----
A|----------------------------------------------------------------------
E|----------------------------------------------------------------------
   -          -                -           -           -
G|-14--15-14--16--17\16--14\11-13/14--14\9-13/14--14\9-13/14-14\-
D|--------12--14--15\14--12\9--11/12--12\7-11/12--12\7-11/12-12\7
A|---------------------------------------------------------------
E|---------------------------------------------------------------

2:40
   -               -            -          -       -         -
G|-12/13-12/13--11-11--14-14|14-12-14--14------------------5-5-7-------
D|-10/11-10/11--9--9---12-12|12-10-12--12---------------5h7------------
A|-----------------------------------------6--3--3|5--8------------5---
E|---------------------------------------------------------------------

   -              -           -          -            -         -
G|-7--------------------------5-5----------------------------------------
D|--5|0|3|0|0|3-3-0--3|5-5|3-0---5--0---------------3|3--3-5--7|5--3-----
A|-------------------------------------3|5--3|5-5|5-----5------------5--3
E|-----------------------------------------------------------------------

2:54
   -       -        -        -           -           -          -
G|---------------------------9---7---5----------------------------------
D|-----3---4---5--0|6-7|0-7--------------5---3----------3--3-----------3
A|-5-------------------------------------------3|5-3|5------3-2|3-2|5---
E|----------------------------------------------------------------------

   -           -            -           -           -          -
G|-----------------------------------------------------------------------
D|-------------3---5--3---------3---------------3-5-6--5--3----3---------
A|-3---0---5-----------5--3|5------5|3--0--3|5--------------5-----3--0--3
E|-----------------------------------------------------------------------

   -         -         -          -          -         -         -
G|------------------------------------------------------------------------
D|----3---5--3----------------------------------3--5--3-------------------
A|-5----5-------5|3-------3--5-5--5--3--0--3|5---------5-0|5--5--3-0--0|5-
E|-------------------4-3--------------------------------------------------

   -         -         -        -        -          -         -
G|--------------------------------------------------------------------
D|----3-----5-3/7--5-3-------3-----------3-0|5---------3-----------3--
A|-3-5---5-------------0--5---5|3---0|5---------5-3|5----0|3---3-5----
E|--------------------------------------------------------------------

3:24
   -          -            -         -        -          -          -
G|-5-5|6-6|7------7|5-------------------------------------------------------
D|------------0--0---8|7-5|3----5h7--5--3-5|3-------------------------------
A|---------------------------5----------------3--3--3--0|3--5--3------------
E|----------------------------------------------------------------5|3--1--3-

   -          -        -        -
G|-----------------------------------------
D|-----------------------------------------
A|-5--3-----0|5--5--5--5--5--5--5--5--5--?-
E|------5|3--------------------------------

     /: slide up (?arrastrar? hacia adelante)
     \: slide down (?arrastrar hacia atrás)
     p: pull off (ligado hacia atras)
     h: hammer on (ligado)
 x |x : tocar las dos notas consecutivamente rápido por Ej. 7|5

Insoluble (Pappo)

El sacerdote;
que brindó la misa para la moral
no se dio cuenta
que tenía  grasa en el delantal.

Por qué?, por qué?, por qué imaginé?!,
Por qué?, por qué?, por qué imaginé?!,
Por qué?, por qué?, por qué imaginé?!,
Por qué?, por qué?, por qué imaginé?!,

No quiero que
sigamos con la duda de que así está bien;
yo solamente
tengo conclusiones de lo que pensé.

Por qué?, por qué?, por qué imaginé?!,
Por qué?, por qué?, por qué imaginé?!,
Por qué?, por qué?, por qué imaginé?!,
Por qué?, por qué?, por qué imaginé?!,
Suggest correction
Creating personal tab
Creating personal tab
You can edit any tab online and save it as your Personal.

You can edit, replace or remove any tab part or add personal notes – all changes will be seen only by you.

Personal tabs can be accessed anytime from any device, even offline.
Learn more »
Give kudos to tab author, rate the tab!
1 2 3 4 5
comments
print report bad tab
guest
Wanna post a correction for this tab? Suggest correction