Oops, an error
Loading. Please wait.

Insoluble tab

version 1
version 1

Whole song

by Pappo
63 views 1 this week
no commentswrite comment
1 2 3 4 5
3 more votes to show rating
add to favorites
×
Save as Personal and add changes to this tab that will be seen only by you. Learn more ›
×
You can save this tab as Personal to edit and correct it or add notes. All changes will be seen only by you. Learn more »
launch autoscroll
font size
0
reset
how to read this tab
guitar tuner
edit
Autoscroll
slow
fast
+/-
esc
set tempo
stop
    Como conosco 2 versiones de este tema, 
saqué las 2 introducciones ya que tienen una pequeña variante.
      
  La Intro 1 es de pappo's blues, y la Intro 2 es de pappo y amigos.
     Vean cual les acomoda mas, aunque la variante es mínima.
                

Intro 1:
 
 1|-------------------------------------------|
  |-------------------------------------------|
  |-------------------------------------------|
  |-5--3--5--3-----------------------3--5--5--|
  |-------------5--4--3-----3--4--5--------5--|
 6|----------------------6-----------------3--|


Intro 2: 
 1|-------------------------------------------|
  |-------------------------------------------|
  |-------------------------------------------|
  |-5--3--5--3--------------------------5--5--|
  |-------------5--4--3-----------3--5-----5--|
 6|----------------------6--3--6-----------3--|

 

        G5
 El sacerdote que brindó la misa
               
               D5 Db5 C5 Bb5
 para la moral,
           
             G5
 no se dió cuenta que tenía grasa 
         
               D5 Db5 C5 Bb5
 en el delantal

  F5  G5   F5 G5
 Por qué, por qué

  F5  G5 C5 Bb5 G5
 por qué imagi-né

  C5  D5   C5  D5
 Por qué, por qué

  C5  D5 G5 F5  D5
 por qué imagi-né

  
Solo:(Esta Completo).
 
 1|----------10----------10------------------------------------
  |--------------13b15-------13--10----------------------------
  |--12b14---------------------------12b14r12--10--12------10--
  |----------------------------------------------------12------
  |------------------------------------------------------------
 6|------------------------------------------------------------


 1--------------------------------|
  --------------------------------|
  --12b14r12--10--12--10--12b14---|
  --------------------------------|
  --------------------------------|
 6--------------------------------| 

 
 1|----------10----------10------------------------------------
  |--------------13b15-------13--10----------------------------
  |--12b14---------------------------12b14r12--10--12------10--
  |----------------------------------------------------12------
  |------------------------------------------------------------
 6|------------------------------------------------------------
 

 1--------------------------------|
  --------------------------------|
  --12b14r12--10--12--10----------|
  ------------------------14v-----|
  --------------------------------|
 6--------------------------------|

 
 1|-------------13b15--13b15--13b15--13b15--13b15r13-------|
  |---------13---------------------------------------------|
  |--12b14-------------------------------------------------|
  |--------------------------------------------------------|
  |--------------------------------------------------------|
 6|--------------------------------------------------------| 


 1|-----------------------------------------------------------------------|
  |-----------------------------------------------------------------------|
  |----------------------------5--4---------------------------------------|
  |-5--3--5--3-----------------------5--4-----------------------5--5------|
  |-------------5--4--3--------------------5--4--3-----------3-----5------|
 6|----------------------6--3-----------------------6--3--6--------3------|


               (Se Repite lo mismo)
 No quiero que sigamos con la duda de que así está bien,
 
 

 yo solamente tengo conclusiones de lo que pensé

 

 Por qué...bla bla bla...


 
 Si tienen dudas de las simbologías que aparecen en la tablatura,
consulten la 'Cursos de guitarra' en la sección 'Recursos'

 Cualquier duda o sugerencia escribanme a thyrael@

            
            
Suggest correction
Creating personal tab
Creating personal tab
You can edit any tab online and save it as your Personal.

You can edit, replace or remove any tab part or add personal notes – all changes will be seen only by you.

Personal tabs can be accessed anytime from any device, even offline.
Learn more »
Give kudos to tab author, rate the tab!
1 2 3 4 5
comments
print report bad tab
guest
Wanna post a correction for this tab? Suggest correction