Oops, an error
Loading. Please wait.

Katmandu tab

by Pappo
88 views 1 this week
no commentswrite comment
1 2 3 4 5
3 more votes to show rating
add to favorites
×
Save as Personal and add changes to this tab that will be seen only by you. Learn more ›
×
You can save this tab as Personal to edit and correct it or add notes. All changes will be seen only by you. Learn more »
launch autoscroll
font size
0
reset
how to read this tab
guitar tuner
edit
Autoscroll
slow
fast
+/-
esc
set tempo
stop
Intro en MI

MI                                                            LA
Voy de viaje a Katmandú, el viaje no es lo mismo si no estas tu

SI       LA            MI
Voy de viaje a Katmandú


No tengo visa no puedo entrar, no creo que este se pueda imaginar

e|---4-4-4-4-5-5-4-4-4-4-4------4-4-4-4-5-5-4-4-4-4-4------5--5----------
B|---5-5-5-5-5-5-5-5-5-5-5------5-5-5-5-5-5-5-5-5-5-5------5--5----------
G|---4-4-4-4-4-4-4-4-4-4-4------4-4-4-4-4-4-4-4-4-4-4------6--6----------
D|---6-6-6-6-------6-6-6-6------6-6-6-6-------6-6-6-6------7--7----------
A|---------------------------------------------------------7--7----------
E|-----------------------------------------------------------------------

Como yo la extraño

e|-----4-4-4-4---------------
B|-----5-5-5-5---------------
G|-----4-4-4-4---------------
D|-----6-6-6-6---------------
A|---------------------------
E|---------------------------

Estribillo


SOLO:
Primera parte

e|---4--------2--------2--------0-------
B|---5--------2--------4--------5-------
G|---6--------2--------4--------6-------    x2
D|---6--------4--------4--------6-------
A|---4--------4--------2--------7-------
E|---4--------2-------------------------


Segunda parte

e|---7-7-7-5-5-5-4-4-5-4--4----0-0-0-0-0-0-0-0---0-0-0-0-0-0-0-0-0-0-0-0-
B|---5-5-5-5-5-5-5-5-5-5--5----5-3-3-3-2-2-2-2p3-3-2-3-3-3-3-2-3-2-2-2-2-
G|---4-4-4-4-4-4-4-4-4-4--4----------------------------------------------
D|------------------------6----------------------------------------------
A|-----------------------------------------------------------------------
E|-----------------------------------------------------------------------


e|-0-0-0-0-0-0-0----0-0-0-0-0-------0-0-0-0--0-0-0-0---------------------
B|-3-2-3-2-3-2-2----5-7-9-9-9b10r9--9-7-5-5--7-5-5-5----7-5--7-5-0-------
G|-----------------------------------------------------------------------
D|-----------------------------------------------------------------------
A|-----------------------------------------------------------------------
E|-----------------------------------------------------------------------

e|--------------------0--0--0-0-0--0-------------------------------------
B|--9-5-0-9-5-0-7-5-0-0--0--0-0-0--0------5-7-9b10rbrbr------------------
G|--------------------9--4--2-2-1--1-------------------------------------
D|-----------------------------------------------------------------------
A|-----------------------------------------------------------------------
E|-----------------------------------------------------------------------


Tercera parte

e|---1-0-1-------1-0-1-----------0-----------0-------
B|-1-------1---1-------1-----1-0---0-1---1-0---0-1---
G|---------------------------------------------------     x2
D|---------------------------------------------------
A|-1-----------1-------------0-----------0-----------
E|---------------------------------------------------

Cuarta parte

e|------------------------------0---------------------
B|--3-5-5/7-5-3-----------------0---------------------
G|---------------2-4-4/6-4-2----1---------------------
D|------------------------------2---------------------
A|------------------------------2---------------------
E|------------------------------0---------------------


No tengo visa no puedo entrar, no creo que este se pueda imaginar
Como yo la extraño

Voy de viaje a Katmandú

Final:

e|---7---
B|---9---
G|---9---
D|---9---
A|---7---
E|---7---

            
            
Suggest correction
Creating personal tab
Creating personal tab
You can edit any tab online and save it as your Personal.

You can edit, replace or remove any tab part or add personal notes – all changes will be seen only by you.

Personal tabs can be accessed anytime from any device, even offline.
Learn more »
Give kudos to tab author, rate the tab!
1 2 3 4 5
comments
print report bad tab
guest
Wanna post a correction for this tab? Suggest correction