Oops, an error
Loading. Please wait.

Little Wing tab

by Pappo
85 views 3 this week
no commentswrite comment
1 2 3 4 5
3 more votes to show rating
add to favorites
×
Save as Personal and add changes to this tab that will be seen only by you. Learn more ›
×
You can save this tab as Personal to edit and correct it or add notes. All changes will be seen only by you. Learn more »
launch autoscroll
font size
0
reset
how to read this tab
guitar tuner
edit
Autoscroll
slow
fast
+/-
esc
set tempo
stop
little wing - pequeña ala - pappo

Intro:

       |-------|----x-x----------------------|
       |-x--12-|----x-x----------------------|
       |-x--12-|----x-x----------------5--5--|
       |-x--12-|----x-x--------5-------5--7--|
       |-------|------------------5^7--------|
       |-------|--0------5^7-----------------|


       |-------3^5^3--3-----------------------|
       |-------3------------------------------|
       |-------4---------4--4^5--5--4^5--4----|
       |----5-------------------------------5-|
       |--------------------------------------|
       |-3------------------------------------|

       |----------------------------------|
       |-------------5--------------------|
       |-------------5^7--5---------------|
       |-------5------------5^7--5--------|
       |---5-7----7--------------7-7------|
       |5-----------------------------5^7-|


       |-----------------------------------------|
       |--8^10--8--------------------------------|
       |-----------7------------7--7----7------7-|
       |------------------------7--7^9--7------7-|
       |--------------7--7--10-------------10--7-|
       |0----------------------------------------|


       |--------9--10--9------7------------|
       |--------7--7---7--10--7------------|
       |-----7------------7------7------7--|
       |-----9-------------------9------8--|
       |-----------------------------------|
       |--7--------------------------6-----|


       |---------------------------------------|
       |---------------------------------------|
       |----5--5--5--5--------5--5--5----------|
       |----7--9--7--5--5--5--5--7--5----------|
       |----------------8--7-------------------|
       |-5-------------------------------5^7---|


       |--------5/7--5--5/3-----------|
       |--------3/5--3--3/1--1--1--1--|
       |--------0-0--0--0-0--0--0--0--|
       |-----5--5/7--5--5/3--3--3--3--|
       |------------------------------|
       |--3---------------------------|


       |--------------------------------------------|
       |--------------------------------------------|
       |-------------------7^5--------------------7-|
       |--------------5^7--------5/7--7--7--7--7----|
       |-------7--7---------------------------------|
       |--7^8--------------------8/10-10-10-10-10---|


       |------------------------------|
       |------------------------------|
       |--7----7--7---7---------------|
       |--7^9--7--7---7---------------|
       |----------10--7---------------|
       |------------------------------|

ACORDES:
Am=5775555  Em=X79987  Am7=575555  Bm=799777
Bb=688766   C=335553    D=557775    Fadd9=1X3013  Em=022000

progreso de acordes y letra:

       Em       G         Am                    Em
cuando vienes hacia mi, su mente esta,su mente esta aqui
Bm Bb    Am           G     Fsus9         C      D
 pajaros y cebras dentro de mi viajan con el viento

          Em       G             Am               Em
cuando este mal,estoy aqui,desde su sonrisa , ella cambia el fin
Bm           Bb      Am            G             Fsus9
dice puedes tomar lo que quieras,lo que quieras de mi
  C               D            Dsus4
viajan con el viento , en tu pequeña ala

(Em - G - Am - Em) varias veces

solo:

e:------------------------------------------------------------------------|
BB:-----15b(17)--15b(17)--15--12--12--15--12-----b(17)15-------------------|
G:--------------------------------------------------------12-------14b(16)|
D:------------------------------------------------------------------------|
A:------------------------------------------------------------------------|
E:13----------------------------------------------------------------------|

e:------------------------------------------------------------------------|
B:---14-------------------------------------------------------------------|
G:-b(16)--14b(16)-14---14b(16)14--12--14--14b(16)14b(16)---b(16)14--------|
D:------------------------------------------------------------------------|
A:------------------------------------------------------------------------|
E:------------------------------------------------------------------------|

E:------------------------------------------------------------------------|
B:-------------------------------------------------10/12------------------|
G:12------12-14b(16)-12-14-----12-14-12/14--12/14--------10/12--14b(16)---|
D:---14---------------------14--------------------------------------------|
A:------------------------------------------------------------------------|
E:------------------------------------------------------------------------|

e:--------------------------------------------------------15--15----------|
BB:12-13-12-13-12-13-12-----15b(17)--b(17)15--12----------15--15-----------|
G:---------------------12-------------------------14b(16)---------14b(16)-|
D:------------------------------------------------------------------------|
A:------------------------------------------------------------------------|
E:------------------------------------------------------------------------|

e:-15------13----------13-------------------------------------------------|
B:-15----------13------13----13-------------------------------------------|
G:-----12----------12-----------------------------------------------------|
D:-------------------------------12-14-12--------12-14-12-----------------|
A:-------------------------------12--------15----12--------15--15/17------|
E:------------------------------------------------------------------------|

e:---------------------------------------12-----------------12------------|
B:---------------------------------------12---------15b(17)------15b(17)--|
G:---------------------------------------12-------------------------------|
D:12--14--16--14--12--14--14--12--12--------------------------------------|
A:12--12--12--12--12--12--12--12--12--------------------------------------|
E:------------------------------------------------------------------------|

e:------------------------------15---15----------15----------15-----------|
B:15----------------------------15---15----------15----------15-----------|
G:----14b(16)--14--12---14b(16)----------14b(16)-----14b(16)-----14b(16)--|
D:------------------------------------------------------------------------|
A:------------------------------------------------------------------------|
E:------------------------------------------------------------------------|

e:15----------------------------------------------------------|---BLUES---|
B:15----------------------------------------------------------|-----------|
G:----b(16)14--12--14------12--14--14b(16)--12--14--12--------|----JIMI---|
D:----------------------14-------------------------------14---|--HENDRIX--|
A:------------------------------------------------------------|-----------|
E:------------------------------------------------------------|---CAPDE---|

NATY ARRASTUA TE AMO ,MI AMOR POR VOS NO TIENE FRONTERAS

CAPDE

            
            
Suggest correction
Creating personal tab
Creating personal tab
You can edit any tab online and save it as your Personal.

You can edit, replace or remove any tab part or add personal notes – all changes will be seen only by you.

Personal tabs can be accessed anytime from any device, even offline.
Learn more »
Give kudos to tab author, rate the tab!
1 2 3 4 5
comments
print report bad tab
guest
Wanna post a correction for this tab? Suggest correction