Oops, an error
Loading. Please wait.

Mi Vieja tab

by Pappo
217 views 1 this week
no commentswrite comment
1 2 3 4 5
3 more votes to show rating
add to favorites
×
Save as Personal and add changes to this tab that will be seen only by you. Learn more ›
×
You can save this tab as Personal to edit and correct it or add notes. All changes will be seen only by you. Learn more »
launch autoscroll
font size
0
reset
how to read this tab
guitar tuner
edit
Autoscroll
slow
fast
+/-
esc
set tempo
stop
Esta es mi sgunda transcripcion y esta bastante completa,
Espero que les guste! Besos a Maria Victoria Armellini, te amo...

INTRO:

e|-10----------------------10~~~----------10-----------10~~~~-----------
B|-10/12~~~~--10-8-9h10-10-8~~~~-----------------------10/12~~~~--------
G|--------------------------------9-11h12-12--9-11h12-------------------
D|----------------------------------------------------------------------
A|----------------------------------------------------------------------
E|----------------------------------------------------------------------

e|----15-10-10-10-10-10----------------------------12-10-7-10-12--10/12-
B|-12-------12/10-8--8--------------7h8-8---8-8/10----------------------
G|----------------------9-7-9--/7-7-------9-----------------------------
D|----------------------------------------------------------------------
A|----------------------------------------------------------------------
E|----------------------------------------------------------------------

e|----------------------------------------------------------------------
B|-12-11-10-8-10-8------------------------------------------------------
G|-----------------9~~~~~~~~~~~---9-9//---aqui desciende varios trastes-
D|----------------------------------------------------------------------
A|----------------------------------------------------------------------
E|----------------------------------------------------------------------


      E
Mi mama todas las mañanas             con el café me viene a despertar
G|----9--------------------------------1/2------9-----------------------
D|----9--------------------------------1/2------9-----------------------
A|----7-----------------------------------------7-----------------------
E|----------------------------------------------------------------------
            A                                         E
      Me  trae el desayuno a la cama      ?no existe nadie como su mama?
G|----------9------------------------------1/2--------9-----------------
D|----------9------------------------------1/2--------9-----------------
A|----------7-----------------------------------------7-----------------
E|----------------------------------------------------------------------

           G     A            E
No existe nadie   como mi mama

       E  D      E  D
Mi vieja es una jubilada
G|-----9--7------9--7------------
D|-----9--7------9--7------------
A|-----7--5------7--5------------
E|-------------------------------

       E  D      E  D
toda su vida laburó sin parar
G|-----9--7------9--7------------
D|-----9--7------9--7------------
A|-----7--5------7--5------------
E|-------------------------------

     A    G        A    G
toda su vida, toda su vida
G|--14---12-------14---12--------
D|--14---12-------14---12--------
A|--12---10-------12---10--------
E|-------------------------------

       E  D      E  D
?Toda su vida laburo sin parar?
G|-----9--7------9--7------------
D|-----9--7------9--7------------
A|-----7--5------7--5------------
E|-------------------------------

       G       A              E      BbBBBBB
Toda su vida...  laburó sin parar.


ESTRIBILLO:

A
Nadie se atreva
(E)
A tocar a mi vieja
D         A
Porque mi vieja
B
Es lo mas grande que hay...

SOLO:

e|-7-10-12-10/12-12-10-12-10-/7--12-10-7---------------------------------
B|---------------------------------------10-8---10-10-/10-8-5-3p5~-8/10-8
G|--------------------------------------------9--------------------------
D|-----------------------------------------------------------------------
A|-----------------------------------------------------------------------
E|-----------------------------------------------------------------------

e|------12-10-7-10-12-10/12-(10)---------------------11-7-11-7-5/7~~~~~~-
B|-8/10-------------------------12-10-8-10-8--/12-12-11-7-11-7-5/7~~~~~~-
G|----------------------------------------9---/11-11---------------------
D|-----------------------------------------------------------------------
A|-----------------------------------------------------------------------
E|-----------------------------------------------------------------------


Mi vieja va a la plaza con pancartas
Con las pancartas que yo mismo le arme
Ella protesta porque ya esta harta
?de que la afanen una y otra vez?
De que la afanen...   una y otra vez

En una de las manifestaciones
Vino la cana y se la quiso llevar
Por reclamar lo que le corresponde
?se vuelve loco, los quiere matar?
me vuelvo loco,   y los quiero matar.

ESTRIBILLO (x2)

FINAL:

e|--5/7-10-7------------------------------------------------------------
B|-----------10-8-----88888888888888888888888888~~~~~~~~~~~~~~~~~~~~~~~~
G|-----------------9--77777777777777777777777777~~~~~~~~~~~~~~~~~~~~~~~~
D|----------------------------------------------------------------------
A|----------------------------------------------------------------------
E|----------------------------------------------------------------------

                                                 Al final me parece que
                      es con efecto Bent, más que con efecto vibrato....

Cualquier dudita a martinmmoretti@
Besos a mi vieja, que se merece este tema.....
AGUANTE PAPPO, QUE SIEMPRE CON SU MUSICA VIVIRA!!!!!!
Suggest correction
Creating personal tab
Creating personal tab
You can edit any tab online and save it as your Personal.

You can edit, replace or remove any tab part or add personal notes – all changes will be seen only by you.

Personal tabs can be accessed anytime from any device, even offline.
Learn more »
Give kudos to tab author, rate the tab!
1 2 3 4 5
comments
print report bad tab
guest
Wanna post a correction for this tab? Suggest correction