Oops, an error
Loading. Please wait.

People Don't Care bass

by Pappo
19 views 1 this week
no commentswrite comment
1 2 3 4 5
3 more votes to show rating
add to favorites
×
Save as Personal and add changes to this tab that will be seen only by you. Learn more ›
×
You can save this tab as Personal to edit and correct it or add notes. All changes will be seen only by you. Learn more »
launch autoscroll
font size
0
reset
guitar tuner
edit
Autoscroll
slow
fast
+/-
esc
set tempo
stop
El bajo lo puse tal cual es, pero en la parte de La menor (casi en
todo el tema) lo pueden improvisar de acuerdo a su escala pentatonica.
Pruebenla e improvisen todo lo que puedan.

G|-------------------------------------------------------------
D|--------------------------------5--7-------------5h7-7--5----
A|-10h12/d------------------3/5h7----------------------------7-
E|------------5--5--5--5--5-------------5--5--5--5-------------

G|------------------------------------------------------------------------
D|---------------------5--7----------------7--5----------------------5--7-
A|---------------3/5h7--------------------------7----------------3h7------
E|-5--5--5--5--5-------------5--5--5--5--5---------5--5--5--5--5----------

G|-------------------------------------------------------------------------
D|------------------5----------------------------5--7-------------5h7-5--7-
A|------------3/5h7----7--5----------------3/5h7---------------------------
E|-5--5--5--5----------------5--5--5--5--5-------------5--5--5--5----------

G|---------------------------------------------------------
D|---------------------------------------------------------
A|-9h10---9---7h9---7------7-------------7---9--7----------
E|--------------------10p8----10---8--10-----------10-8----
  ?People don´t care(coro)!So wath??
G|------------------------------------------------
D|------------------------------------5h7-5-------
A|-------------------------------------------7--5-
E|-5--5--5--5--5--5--5--5--5--5--5--5-------------
  "People don´t care!(coro)?
G|-----------------------------------------5----
D|---------------------5--7------------5h7----7-
A|---------------3/5h7--------------------------
E|-5--5--5--5--5------------5--5--5--5----------
        ?People don´t care??
G|-------------------------------------------------
D|-----------------------------------------------5-
A|---------------------------------------3/5--7----
E|-5--5--5--5--5--5--5--5--5--5--5--5--5-----------
              ?People don´t care now??
G|-------------------------------------------------
D|-----------------------------------------------5-
A|---------------------------------------3/5--7----
E|-5--5--5--5--5--5--5--5--5--5--5--5--5-----------
               ?I just don´t care??
G|-------------------------------------------------
D|-----------------------------------------------5-
A|---------------------------------------3/5--7----
E|-5--5--5--5--5--5--5--5--5--5--5--5--5-----------
               ?Don?t care, don?t care, please don´t?
G|-------------------------------------------------
D|-----------------------------5--------5----------
A|-------------------------5h7----7--5-----7--5--7-
E|-5--5--5--5--5--5--5--5--------------------------
  ?care?
G|-------------------------------------------
D|-------------------------------------------
A|-3--3--3--3--3--2--3--4--5------------3----
E|---------------------------2---5---5-----5-
 ?People don´t care!(coro)?
G|--------------------------------------------------
D|---------------------5--7----------------5--------
A|---------------3/5h7-----------------------7-5----
E|-5--5--5--5--5-------------5--5--5--5--5-------8--
 ?People don´t care!(coro)?
G|--------------------------------------------------
D|---------------------5--7-------------5h7--5h7----
A|---------------3/5h7------------------------------
E|-5--5--5--5--5-------------5--5--5--5-------------
 ?People don´t care??                           (1:03)
G|---------------------------------------------------
D|---------------------55-7------------------------5-
A|---------------3/5h7---------------------3/5--7----
E|-5--5--5--5--5-------------5--5--5--5--5-----------
       ?People don´t care??
G|---------------------------------------------------
D|---------------------5--7------------------------5-
A|---------------3/5h7---------------------3/5--7----
E|-5--5--5--5--5-------------5--5--5--5--5-----------
  ?People don?t´care??
G|---------------------------------------------------
D|-------------------5--7----------------------------
A|----------------7------------------------3--5--7---
E|-5--5--5--5--5-------------5--5--5--5--5(8)--------
        ?People don´t care??
G|--------------------------------------------------
D|-------------------5--7---------------5h7-7--5--5-
A|----------------7---------------------------------
E|-5--5--5--5--5-------------5--5--5--5-------------

G|-------------------------------------------
D|-------------------------------------------
A|-3--3--3--3--3--2--3--4--5------------3----
E|---------------------------2---5---5-----5-
 ?People don´t care!(coro)?
G|--------------------------------------------------
D|---------------------5--7-------------5h7-7--5----
A|---------------3/5h7----------------------------7-
E|-5--5--5--5--5-------------5--5--5--5-------------
 ?People don´t care!(coro)?
G|------------------------------55-----------------
D|---------------------5--7--7----7--5-------------
A|---------------3/5h7------------------7--5-----5-
E|-5--5--5--5--5------------------------------8----

G|---------------------------------------------------------
D|---------------------------------------------------------
A|-9h10---9---7h9---7------7-------------7---9--7----------
E|--------------------10p8----10---8--10-----------10-8----
(empieza el solo del carpo)
G|--------------------------------------------------
D|---------------------5--7-------------------------
A|---------------3/5h7------------------------------
E|-5--5--5--5--5-------------5--5--5--5--5--5--5--5-
(1:38)
G|--------------------------------------------------
D|---------------------5--7-------------5h7-7--5----
A|---------------3/5h7------------------------------
E|-5--5--5--5--5-------------5--5--5--5-------------

G|-------------------------------------------------------------------
D|---------------------------------------------------------5/7--5----
A|---------------3/5--7----------------3--5--7---------------------7-
E|-5--5--5--5--5---------5--5--5--5--5(8)-------5--5--5--5-----------

G|---------------------------------------------
D|---------------------------------------------
A|-3--3--3--3--3--2--3--4--5-----------3--2----
E|---------------------------2--2--5---------3-
?People don´t care!(coro)?
G|----------------------------------------------
D|------------------5--7-------------7--5-------
A|---------------7-------------------------7--5-
E|-5--5--5--5--5----------5--5--5--5------------
?People don´t care!(coro)?
G|----------------------------------------------
D|-----------------5--7----------------5h7--5h7-
A|---------------7------------------------------
E|-5--5--5--5--5---------5--5--5--5--5----------
?People don´t care??
G|-------------------------------------------------
D|---------------------5--7------------------------
A|---------------3/5h7---------------------3--5--7-
E|-5--5--5--5--5-------------5--5--5--5--5---------
?just don´t care??                            (2:12)
G|-------------------------------------------------
D|---------------------5--7-------------------5--7-
A|---------------3/5h7---------------------7-------
E|-5--5--5--5--5-------------5--5--5--5--5---------
                 ?People don´t care??
G|--------------------------------------------------
D|---------------------5--7-------------------------
A|---------------3/5h7------------------------------
E|-5--5--5--5--5-------------5--5--5--5--5--5--5--5-
                ?just don´t care??
G|-----------------------------------------------
D|------------------5--7-------------------------
A|---------------7--------------------------7--5-
E|-5--5--5--5--5----------5--5--5--5--5--8-------

G|---------------------------------------------
D|---------------------------------------------
A|-3--3--3--3--3--2--3--4--5-------------------
E|---------------------------2--2--5---5--5--5-
?People don´t care!(coro)?
G|------------------------------------------------
D|---------------------5--7------------5h7-5--5h7-
A|---------------3/5h7----------------------------
E|-5--5--5--5--5------------5--5--5--5------------
?People don´t care!(coro)?                   (2:33)
G|------------------------------------------------
D|---------------------5--7------------7--5-------
A|---------------3/5h7-----------------------7--5-
E|-5--5--5--5--5------------5--5--5--5------------
?People don´t care!(coro)?
G|-------------------------------------------------
D|---------------------5--7-------------7--5-------
A|---------------3/5h7------------------------7--5-
E|-5--5--5--5--5-------------5--5--5--5------------
?People don´t care!(coro)?
G|----------------------------------------------
D|------------------5--7------------------------
A|---------------7-------------------------5--7-
E|-5--5--5--5--5----------5--5--5--8--8---------
?People don´t care!(coro)
G|----------------------------------------------------
D|---------------------5--7----------------------5--7-
A|---------------3/5h7---------------------3/5h7------
E|-5--5--5--5--5-------------5--5--5--5--5------------
?People don´t care!(coro)
G|-----------------------------------------------------
D|---------------------5--7--------------------------5-
A|---------------3/5h7----------------------5--5--7----
E|-5--5--5--5--5-------------5--5--5--5--8-------------
?People don´t care!(coro)
G|------------------------------------------------
D|---------------------5--7------7--5-------------
A|---------------3/5h7-----------------7--5--3--5-
E|-5--5--5--5--5------------5--5------------------
?People don´t care!(coro)
G|---------------------------------------------- El tema se escucha
D|---------------------5--7------5h7--5h7--5h7-- hasta aca.
A|---------------3/5h7--------------------------
E|-5--5--5--5--5------------5-------------------

  h: hammer on (ligado)
  /: slide up (arrastrar)
 /d: slide down (arrastrar hacia atrás)
  p: pull off (ligado ?hacia atrás?)
(x): nota opcional

Mientras su musica se siga tocando y escuchando el carpo jamas morira,
vivira eternamente en la memoria de todos...
e-mail: zarathustra4321@

            
            
Suggest correction
Creating personal tab
Creating personal tab
You can edit any tab online and save it as your Personal.

You can edit, replace or remove any tab part or add personal notes – all changes will be seen only by you.

Personal tabs can be accessed anytime from any device, even offline.
Learn more »
Give kudos to tab author, rate the tab!
1 2 3 4 5
comments
print report bad tab
guest
Wanna post a correction for this tab? Suggest correction