Oops, an error
Loading. Please wait.

Pobre Juan bass

by Pappo
71 views 1 this week
no commentswrite comment
1 2 3 4 5
3 more votes to show rating
add to favorites
×
Save as Personal and add changes to this tab that will be seen only by you. Learn more ›
×
You can save this tab as Personal to edit and correct it or add notes. All changes will be seen only by you. Learn more »
launch autoscroll
font size
0
reset
guitar tuner
edit
Autoscroll
slow
fast
+/-
esc
set tempo
stop
(entra en la 2da vuelta de guit)
            3 veces                         2 veces
G|------------------------------|-----------------------------|
D|--------7--7-10--------7--7---|-----------------------------|
A|--7-9-10-10------7-9-10-10-10-|------------3----------------|
E|------------------------------|-0-2-3-5-3-5---0-2-3-5-3-5-3-|
       ?Camino por la calle??
G|-------------777777---------------------------------------------
D|----------------------------------------------------------------
A|-----------------------3----------3---------------------------3-
E|-0-2-3-5--3---------5----5--5-3-5---0-2-3-5-3-5-3--0-2-3-5-3-5--
                       ?Y cuando?
G|----------------------------------------------------------------
D|----------------------------------------------------------------
A|---------------------------555555----3----------3---------------
E|-0-2-3-5-3-5-3--0-2-3-5--3--------5----5--5-3-5---0-2-3-5-3-5-3-
                                    ?Pobre Juan?
G|----------------------------------------------------77777-7-77777-7-----
D|--------------------------------------------------------------------775-
A|------------3---------------------------3------------------------------7
E|-0-2-3-5-3-5---0-2-3-5-3-5-3--0-2-3-5-------33333-3---------------------

?Pobre Juan?                             16 veces
G|----------------77777-7-77777-7-----|----------------|
D|-------------------------------575--|----------------|
A|0---3-----------------------------7-|-----3----------|
E|--------33333-3---------------------|5-3-5---5-3-5-3-|

2:15
G|-----------------------------
D|-----------------------------
A|------------3----------------
E|-0-2-3-5-3-5---0-2-3-5-3-5-3-

       ?Camino por la calle??
G|----------------------------------------------------------------
D|----------------------------------------------------------------
A|-------------555555----3----------3---------------------------3-
E|-0-2-3-5--3---------5----5--5-3-5---0-2-3-5-3-5-3--0-2-3-5-3-5--

                       ?Y cuando?
G|---------------------------777777-------------------------------
D|----------------------------------------------------------------
A|-------------------------------------3----------3---------------
E|-0-2-3-5-3-5-3--0-2-3-5--3--------5----5--5-3-5---0-2-3-5-3-5-3-

                                    ?Pobre Juan?
G|----------------------------------------------------77777-7-77777-7
D|-------------------------------------------------------------------
A|------------3---------------------------3--------------------------
E|-0-2-3-5-3-5---0-2-3-5-3-5-3--0-2-3-5-------33333-3----------------

      ?Pobre Juan?                                  3 veces
G|--------------------------------------|----------------------------|
D|-575----------------------------------|77575-----------------------|
A|----7-0---3-----------55555-5-55555-5-|-----7-35353-------3-35-57--|
E|--------------33333-3-----------------|-------------53-5-5---------|

G|--------------------------|
D|-77575--------------------|
A|------7-35--------------3-|
E|---------------5--3--5----|

Solitario Juan (Pappo)

Camino por la calle y no comprendo,
lo caro que es vivir en libertad,
y cuando paso la gente me mira,
y puedo ver mi cara y nada más.

Pobre Juan,
que puede ver su cara y nada más,
pobre Juan,
que se cree que está muy lejos de la paz;
yeah

Mientras su musica se siga tocando y escuchando el carpo jamas morira,
vivira eternamente en la memoria de todos...
Aquellos bajistas que le guste la musica de Pappo me pueden escribir
al e-mail: zarathustra4321@

            
            
Suggest correction
Creating personal tab
Creating personal tab
You can edit any tab online and save it as your Personal.

You can edit, replace or remove any tab part or add personal notes – all changes will be seen only by you.

Personal tabs can be accessed anytime from any device, even offline.
Learn more »
Give kudos to tab author, rate the tab!
1 2 3 4 5
comments
print report bad tab
guest
Wanna post a correction for this tab? Suggest correction