Oops, an error
Loading. Please wait.

Pobre Juan tab

version 1
version 1

Whole song

by Pappo
47 views 1 this week
no commentswrite comment
1 2 3 4 5
3 more votes to show rating
add to favorites
×
Save as Personal and add changes to this tab that will be seen only by you. Learn more ›
×
You can save this tab as Personal to edit and correct it or add notes. All changes will be seen only by you. Learn more »
launch autoscroll
font size
0
reset
how to read this tab
guitar tuner
edit
Autoscroll
slow
fast
+/-
esc
set tempo
stop
Intro: riff 1 x6

  A5           G5            D5
Camino por la calle y no comprendo,
    A5            C5         C5  A5  G5>x2
lo caro que es vivir en libertad,
   A5         G5          D5
y cuando paso la gente me mira,
   A5          C5          C5  A5  G5>x2
y puedo ver mi cara y nada más.


A5 C5  G5
Pobre Juan,
     D5
que puede ver su cara y nada más,
A5 C5  G5
Pobre Juan,
        D5                                C5>x8
que se cree que está muy lejos de la paz;

Solo: x22
      riff 1x2


  A5           G5            D5
Camino por la calle y no comprendo,
    A5            C5         C5  A5  G5>x2
lo caro que es vivir en libertad,
   A5         G5          D5
y cuando paso la gente me mira,
   A5          C5          C5  A5  G5>x2
y puedo ver mi cara y nada más.


A5 C5  G5
Pobre Juan,
     D5
que puede ver su cara y nada más,
A5 C5  G5
Pobre Juan,
        D5
que se cree que está muy lejos de la paz;

riff 3x3

Outro


  riff 1
*-------------------------------*
*-------------------------------*
*-------------------------------*
*-------------------------------*
*--------------3----------------*
*--0-3-4-5-4-5---0-3-4-5-4-5-3--*

   variación
  *---------------------------------*
  *---------------------------------*
  *---------------------------------*
G1*---------------------------------*
  *--------------3-3----------------*
  *--0-3-4-5-4-5-----0-3-4-5-4-5-3--*
  *                                 *
  *        A5    C5        A5    G5 *
  *---------------------------------*
  *---------------------------------*
  *--------------5------------------*
G2*--------7-----5---------7-----5--*
  *--------7---------------7-----5--*
  *---------------------------------*

 riff 3
*--------------*---------------*----------------*
*--------------*---------------*----------------*
*--------------*---------------*----------------*
*--5-7-5-7-5---*---------------*-------------2--*
*------------7-*-3-5-3-5-3-----*-----3-3-5-5----*
*--------------*-----------5-3-*-5-5------------*

outro
*--------------*--------*------------*-------------*
*--------------*--------*------------*--5/6-6-6\5--*
*--------------*--------*---------5--*-------------*
*--5-7-5-7-5---*--------*--7^5^7--5--*-------------*
*------------7-*--3-5---*--7^5^7-----*-------------*
*--------------*--------*------------*-------------*

            
            
Suggest correction
Creating personal tab
Creating personal tab
You can edit any tab online and save it as your Personal.

You can edit, replace or remove any tab part or add personal notes – all changes will be seen only by you.

Personal tabs can be accessed anytime from any device, even offline.
Learn more »
Give kudos to tab author, rate the tab!
1 2 3 4 5
comments
print report bad tab
guest
Wanna post a correction for this tab? Suggest correction