Oops, an error
Loading. Please wait.

Sandwiches De Miga bass

by Pappo
74 views 1 this week
no commentswrite comment
1 2 3 4 5
3 more votes to show rating
add to favorites
×
Save as Personal and add changes to this tab that will be seen only by you. Learn more ›
×
You can save this tab as Personal to edit and correct it or add notes. All changes will be seen only by you. Learn more »
launch autoscroll
font size
0
reset
guitar tuner
edit
Autoscroll
slow
fast
+/-
esc
set tempo
stop
Tema poderosisimo de la mejor formación de Pappos´s Blues Pappo-Pomo-Machi
que los reunio en esa gloria del rock que fue el ?Volumen 3?.
Esta transcripto de su album de estudio.

               x2                              x2
G|----------------------------------|-------------------------|
D|-----------------------------8--6-|-------------------------|
A|-6/8-888---6/8-888---6/8-888------|-8-888-8-888-6-666-6-666-|
E|---------6---------6--------------|-------------------------|

 ?No pudo evitar que vengan hacia mi los??    ?y parece mentira que
                     x2
G|-----------------------------------------|------10----10----10----
D|----10|10|10|10---10|10-10---8888---88-8-|----10----10----10----10
A|-8-------------8----------6------6-------|-8-8-----8-----8--------
E|-----------------------------------------|------------------------

hoy estuve aquí esperandote?

G|----8---8--8------10----10----10-------------|
D|---8---8--8---8-10----10----10---------------|
A|6-6---6--6-----8-----8-----8-----6-666-6--6-6|
E|---------------------------------------------|

?estuve esperándote?                1:00
                 x2
G|----------------------------------|---------------------|
D|-----------------------------8--6-|---------------------|
A|-6/8-888---6/8-888---6/8-888------|-8-888-888-888-886-6-|
E|---------6---------6--------------|---------------------|

G|----------------------------|-----------------------------------|
D|---------------------3------|----------------------------3------|
A|-999-88-6-4-6--2-33-5-5-3-5-|-55555--9-9-88-6-4-6--2-33-5-5-3-5-|
E|----------------------------|-----------------------------------|

(empieza el solo de guitarra)
                x9                               x2
G|----------------------------------|-------------------------|
D|-----------------------------8--6-|-------------------------|
A|-6/8-888---6/8-888---6/8-888------|-8-888-8-888-6-666-6-666-|
E|---------6---------6--------------|-------------------------|

?y cuando salga el sol?
                    x2
G|----------------------------------------|-------------------------------
D|---10|10|10|10---10|10-10---8888---88-8-|--10|10|10|10---10|10-10-------
A|8-------------8----------6------6-------|-8-----------8----------6-6-6-6
E|----------------------------------------|-------------------------------

¡Estuve despertandome!
                x4                 Final
G|-----------------------------8--|--------| /: slide o arrastrar
D|--------------------------8-6-6-|--------|
A|-6/8-888--6/8-888---6/888-------|-6-8888-|
E|---------6--------6-------------|--------|

Sandwiches de miga (Papppo-Machi)

No puedo evitar que vengan hacia mi
los sanguches de miga
Y parece mentira que hoy estuve aquí
esperandote, ¡Estuve esperandote!

Y cuando salga el sol por detrás de las colinas,
no digas nada a nadie, pero estuve despertando
en la mañana, ¡Estuve despertandome!

Mientras su musica se siga tocando y escuchando el carpo jamas
 morira, vivira eternamente en la memoria de todos...
e-mail: zarathustra4321@

            
            
Suggest correction
Creating personal tab
Creating personal tab
You can edit any tab online and save it as your Personal.

You can edit, replace or remove any tab part or add personal notes – all changes will be seen only by you.

Personal tabs can be accessed anytime from any device, even offline.
Learn more »
Give kudos to tab author, rate the tab!
1 2 3 4 5
comments
print report bad tab
guest
Wanna post a correction for this tab? Suggest correction