Oops, an error
Loading. Please wait.

Tema 1 (O Hay Tiempo Para Elegir) tab

version 1
version 1

Whole song

by Pappo
43 views 1 this week
no commentswrite comment
1 2 3 4 5
3 more votes to show rating
add to favorites
×
Save as Personal and add changes to this tab that will be seen only by you. Learn more ›
×
You can save this tab as Personal to edit and correct it or add notes. All changes will be seen only by you. Learn more »
launch autoscroll
font size
0
reset
how to read this tab
guitar tuner
edit
Autoscroll
slow
fast
+/-
esc
set tempo
stop
 Intro: Riff intro
 Estructura de riffs (se mantiene durante todo el tema, 
 excepto cuando vuelve la intro):
 Riff A5 x4; Riff D5 x2; Riff A5 x2
 Riff E5 x1; Riff D5 x1; Riff x2
 

 A ver con cuál nos quedamos, tenemos que decidir.
 No es que esté deseperado, hay tiempo para elegir.

 Oh, no. Oh yeah, aaaaaaahhh
 Riff intro

 En un castillo de piedra veo las aves pasar.
 No creas que soy muy listo, pero aquí he de quedar.

 Oh, no. Oh yeah, aaaaaaahhh

 Riff A5
 1|---------------|
  |---------------|
  |---------------|
  |---------------|
  |--5--7--9--10--|
 6|--3--5--7--8---| 
 
  Riff D5
 1|---------------|
  |---------------|
  |---------------|
  |--5--7--9--10--|
  |--3--5--7--8---|
 6|---------------|

  Riff E5
 1|---------------|
  |---------------|
  |---------------|
  |--5--9--11--12-|
  |--3--7--9---10-|
 6|---------------|

 
  Riff intro                                    x4
 1|--------------------------------------------|
  |--------------------------------------------|
  |--x--9--x--9--x--9--x--9--x--9--------------|
  |--x--9--x--9--x--9--x--9--x--9--x--10--9----|
  |--x--7--x--7--x--7--x--7--x--7--x--10--9----|
 6|--0--0--0--0--0--0--0--0--0--0--0--8---7----|

  Riff intro (2da parte)
 1|----------------|
  |----------------|
  |----------------|
  |--7--5----3--2--|
  |--7--5----3--2--|
 6|--5--3----1--0--|
Suggest correction
Creating personal tab
Creating personal tab
You can edit any tab online and save it as your Personal.

You can edit, replace or remove any tab part or add personal notes – all changes will be seen only by you.

Personal tabs can be accessed anytime from any device, even offline.
Learn more »
Give kudos to tab author, rate the tab!
1 2 3 4 5
comments
print report bad tab
guest
Wanna post a correction for this tab? Suggest correction