Oops, an error
Loading. Please wait.

Trabajo Forzado bass

by Pappo
27 views 3 this week
no commentswrite comment
1 2 3 4 5
3 more votes to show rating
add to favorites
×
Save as Personal and add changes to this tab that will be seen only by you. Learn more ›
×
You can save this tab as Personal to edit and correct it or add notes. All changes will be seen only by you. Learn more »
launch autoscroll
font size
0
reset
guitar tuner
edit
Autoscroll
slow
fast
+/-
esc
set tempo
stop
Otro buen tema de su ultimo disco.

0:08
G|-----------------------------------------------
D|--------2--------------------2-----------------
A|-----------2--5-----------------2--5-(0)-------
E|-0--3-5---------------0--3-5----------5--------

G|-----------------------------------------------
D|--------2--------------------2-----------------
A|-----------2--5-----------------2--5--4--------
E|-0--3-5---------------0--3-5-------------------
?Camino entre las sombras?                      camino entre las sombras?
G|------------------------------------------------------------------------
D|------------------------------------------------------------------------
A|------------------------------------------------------------------------
E|-0-----------0--0--0--0--0--0--0--0--0--0--0--0--5--5--5--5--5--5--5--5-
  fe?                     fe que fui perdiendo a medida que pretendo?
G|-----------------------------------------------
D|-----------------------------------------------
A|-------------------------------------5---------
E|-0--0--0--0--0--0--0--0--7--7--7--7--------5---
ser?             tu ser?
G|-----------------------------------------------
D|--------2--------------------2-----------------
A|-----------2--5-----------------2--5-(0)-------
E|-0--3-5---------------0--3-5----------5--------
?El dinero no me alcanza?                       para comprarme ropa, ni?
G|------------------------------------------------------------------------
D|------------------------------------------------------------------------
A|------------------------------------------------------------------------
E|-0-----------0--0--0--0--0--0--0--0--0--0--0--0--5--5--5--5--5--5--5--5-
café?                     sigo caminando en las obscuras calles del?
G|-----------------------------------------------
D|-----------------------------------------------
A|-------------------------------------5---------
E|-0--0--0--0--0--0--0--0--7--7--7--7--------5---
dock            Dock Sud?
G|-----------------------------------------------
D|--------2--------------------2-----------------
A|-----------2--5-----------------2--5-(0)-------
E|-0--3-5---------------0--3-5----------5--------
(empieza el solo de guitarra)
G|-----------------------------------------------
D|--------2--------------------2-----------------
A|-----------2--5-----------------2--5--4--------
E|-0--3-5---------------0--3-5-------------------

G|-----------------------------------------------
D|-----------------------------------------------
A|-----------------------------------------------
E|-5----5--5--5--5--5--5--5--5--5--5--5--5--5--5-

G|-----------------------------------------------
D|-----------------------------------------------
A|------------------------------------7----------
E|-0----0--0--0--0--0--0--0--0--0--0--------0--0-

G|------------------------------------------------
D|------------------------------------------------
A|------------------------------------------------
E|-5--5--5--5--5--5--5--5--5--5--5--5--5--5--5--5-

G|------------------------------------------------
D|------------------------------------------------
A|-------------------------5--5--5--5--5--5--5--5-
E|-7--7--7--7--7--7--7--7-------------------------

G|-----------------------------------------------
D|--------2--------------------2-----------------
A|-----------2--5-----------------2--5-(0)-------
E|-0--3-5---------------0--3-5----------5--------

G|-----------------------------------------------
D|--------2--------------------2-----------------
A|-----------2--5-----------------2--5--4--------
E|-0--3-5---------------0--3-5-------------------
?Soy un desempleado?                           si no me queda otra?
G|------------------------------------------------------------------------
D|------------------------------------------------------------------------
A|------------------------------------------------------------------------
E|-0-----------0--0--0--0--0--0--0--0--0--0--0--0--5--5--5--5--5--5--5--5-
ayudar                trabajaria con gusto si obtuviera un salario
G|-----------------------------------------------
D|-----------------------------------------------
A|-------------------------------------5---------
E|-0--0--0--0--0--0--0--0--7--7--7--7--------5---
normal?    trabajo forzado?                trabajo
G|-----------------------------------------------
D|--------2--------------------2-----------------
A|-----------2--5-----------------2--5-(0)-------
E|-0--3-5---------------0--3-5----------5--------
normal?
G|-----------------------------------------------
D|--------2--------------------2-----------------
A|-----------2--5-----------------2--5--4--------
E|-0--3-5---------------0--3-5-------------------

G|-----------------------------------------------
D|--------2--------------------2-----------------
A|-----------2--5-----------------2--5-(0)-------
E|-0--3-5---------------0--3-5----------5--------

G|------------------------------------------------------------------------
D|--------2--------------------2------------------------------------------
A|-----------2--5-----------------2--5--4---------------------------------
E|-0--3-5---------------0--3-5-------------------0------------------------
3:29
G|-----------------------------------------------
D|--------2--------------------2-----------------
A|-----------2--5-----------------2--5-(0)-------
E|-0--3-5---------------0--3-5----------5--------

G|-----------------------------------------------
D|--------2--------------------2-----------------
A|-----------2--5-----------------2--5-(0)-------
E|-0--3-5---------------0--3-5----------5--------

G|-----------------------------------------------
D|--------2--------------------2-----------------
A|-----------2--5-----------------2--5--4--------
E|-0--3-5---------------0--3-5-------------------

G|-----------------------------------------------------------------------|
D|--------2--------------------2-----------------------------------------|
A|-----------2--5-----------------2--5-(0)-------------------------------|
E|-0--3-5---------------0--3-5----------5--------0-----------------------|

(x): nota opcional

Trabajo forzado (Pappo)

Camino entre las sombras, camino sin saber que hacer
Camino entre las sombras, a punto de perder mi fe
Fe que fui perdiendo a medida que pretendo ser, tu ser

El dinero no me alcanza para pagar el alquiler
para comprarme ropa ni para tomarme un café
Sigo caminando en las obscuras calles del dock, Dock Sud

Soy un desempleado con buen coeficiente mental
sino me queda otra tengo que salir a ayudar
Trabajaria con gusto si obtuviera un salario normal
Trabajo forzado, trabajo normal

Mientras su musica se siga tocando y escuchando el carpo jamas morira,
vivira eternamente en la memoria de todos...
e-mail: zarathustra4321@
Suggest correction
Creating personal tab
Creating personal tab
You can edit any tab online and save it as your Personal.

You can edit, replace or remove any tab part or add personal notes – all changes will be seen only by you.

Personal tabs can be accessed anytime from any device, even offline.
Learn more »
Give kudos to tab author, rate the tab!
1 2 3 4 5
comments
print report bad tab
guest
Wanna post a correction for this tab? Suggest correction