Oops, an error
Loading. Please wait.

Trabajo Forzado chords

version 1
version 1

Whole song

by Pappo
35 views 1 this week
no commentswrite comment
1 2 3 4 5
3 more votes to show rating
add to favorites
×
Save as Personal and add changes to this tab that will be seen only by you. Learn more ›
×
You can save this tab as Personal to edit and correct it or add notes. All changes will be seen only by you. Learn more »
launch autoscroll
font size
0
reset
transpose
0
reset
display chords
guitar tuner
edit
Autoscroll
slow
fast
+/-
esc
set tempo
stop
Strumming
There is no strumming pattern for this song yet. and get +5 IQ
Esta es la guitarra rítmica

Intro (RIFF)

E|----------------------------------------------
B|--------------3-------------------------------
G|--------------2------------------------2------
D|---------2----0-----------------2---0--2------      x2
A|-------2---2--0---------------2---2----0------
E|---0-3-----?--------------0-3-----------------


Camino entre las sombras, camino sin saber que hacer

E|-------------
B|-------------
G|-------------
D|-----2-------
A|-----2-------
E|-----0--?----

Camino entre las sombras, a punto de perder mi fe

E|--------------------------------------------------
B|--------------------------------------------------
G|-----2--------------------------------------------
D|-----2---------------------------------------2----
A|-----0---------------------------------------2----
E|-------?-------------------------------------0----

Fe que fui perdiendo a medida que pretendo ser... tu ser

E|--------------------------------
B|-----------------3--------------
G|---4-------------2------2-------
D|---4-------------0------2-------
A|---2-------------0------0-------
E|-------?------------------------


Riff x1


El dinero no me alcanza para pagar el alquiler
Para comprarme ropa ni para tomarme un café
Sigo caminando en las oscuras calles del rock
Dock Sud

RIFF x2

En el solo:

E|-------|-------|--------------------|-----------------
B|----------------------------------------3-------------
G|----2-------------2-------------4-------2-------------
D|----2------2------2?4-4s5~5s7~~-4-------0-------------
A|----0------2------0-------------2-------0-------------
E|-------|?--0---|--------------------|-----------------

RIFF x2

Soy un desempleado con buen coeficiente mental
Si no me queda otra tengo que salir a ayudar
Trabajaría con gusto si tuviera un salario normal
Trabajo Forzado, trabajo normal


RIFF hasta la pausa larga y luego sigue

            
            
Suggest correction
Creating personal tab
Creating personal tab
You can edit any tab online and save it as your Personal.

You can edit, replace or remove any tab part or add personal notes – all changes will be seen only by you.

Personal tabs can be accessed anytime from any device, even offline.
Learn more »
Give kudos to tab author, rate the tab!
1 2 3 4 5
comments
print report bad tab
guest
Wanna post a correction for this tab? Suggest correction