Oops, an error
Loading. Please wait.

Tren Azul bass

by Pappo
26 views 3 this week
no commentswrite comment
1 2 3 4 5
3 more votes to show rating
add to favorites
×
Save as Personal and add changes to this tab that will be seen only by you. Learn more ›
×
You can save this tab as Personal to edit and correct it or add notes. All changes will be seen only by you. Learn more »
launch autoscroll
font size
0
reset
guitar tuner
edit
Autoscroll
slow
fast
+/-
esc
set tempo
stop
VERSION CORREGIDA (habia un pequeño error después de ?no me importa??
Luego del solo de guitarra)

Tema de ?caso cerrado? pero que también figura primero en un disco
anterior llamado ?Plan diabolico?. No es muy difícil de tocar así
que prueben esta tablatura.

 ?Voy viajando en un tren???y al mirar las estrellas??
              x4                       x2
G|-------------------------|-------------------------|
D|-------------------------|-------------------------|
A|-------------------------|-12|12|10|10|12-0-?10|12-|
E|-12|12|10|10|12-0?-10|12-|-------------------------|

                           ?y no hay ningun??
              x2                   x1                    x2
G|-------------------------|-----------------|-------------------------|
D|-------------------------|-----------------|-------------------------|
A|-------------------------|-----------------|-------------------------|
E|-12|12|10|10|12-0?-10|12-|-7---7---7-7-6-5-|-12|12|10|10|12-0?-10|12-|

 ?Con tu dinero tu puedes???Lo que tu quieras, a mi??
              x4                       x2
G|-------------------------|-------------------------|
D|-------------------------|-------------------------|
A|-------------------------|-12|12|10|10|12-0-?10|12-|
E|-12|12|10|10|12-0?-10|12-|-------------------------|

                           ?No me importa mas??
              x2                   x1
G|-------------------------|-----------------|---------|
D|-------------------------|-----------------|------10-|
A|-------------------------|-----------------|--5/7----|
E|-12|12|10|10|12-0?-10|12-|-7---7---7-7-6-5-|---------|

      ?en un tren azul?    (empieza el solo de guitarra)
              x2                       x4
G|-------------------------|-------------------------|
D|-------------------------|-------------------------|
A|-------------------------|-------------------------|
E|-12|12|10|10|12-0?-10|12-|-12|12|10|10|12-0?-10|12-|

             x2                        x2                    x1
G|-------------------------|-------------------------|-----------------|
D|-------------------------|-------------------------|-----------------|
A|-12|12|10|10|12-0-?10|12-|-------------------------|-----------------|
E|-------------------------|-12|12|10|10|12-0?-10|12-|-7---7---7-7-6-5-|

?Con tu dinero tu puedes???Lo que tu quieras, a mi??
              x4                       x2
G|-------------------------|-------------------------|
D|-------------------------|-------------------------|
A|-------------------------|-12|12|10|10|12-0-?10|12-|
E|-12|12|10|10|12-0?-10|12-|-------------------------|

                           ?No me importa mas??
              x2                   x1
G|-------------------------|-----------------|------7---|
D|-------------------------|-----------------|--7/9-----|
A|-------------------------|-----------------|-------10-|
E|-12|12|10|10|12-0?-10|12-|-7---7---7-7-6-5-|----------|

      ?en un tren azul?
              x2                       x4
G|-------------------------|-------------------------|
D|-------------------------|-------------------------|
A|-------------------------|-------------------------|
E|-12|12|10|10|12-0?-10|12-|-12|12|10|10|12-0?-10|12-|

             x2                        x2                    x1
G|-------------------------|-------------------------|-----------------|
D|-------------------------|-------------------------|-----------------|
A|-12|12|10|10|12-0-?10|12-|-------------------------|-----------------|
E|-------------------------|-12|12|10|10|12-0?-10|12-|-7---7---7-7-6-5-|

 (hasta el final del tema)
G|-------------------------|
D|-------------------------|  */*:significa arrastrar
A|-------------------------|      de un traste al otro p. ej 5/7
E|-12|12|10|10|12-0?-10|12-|

Tren Azul (Pappo)

Voy viajando en un tren azul
Y al mirar las estrellas del blues
Y no hay ningun motivo que me diga
Si he nacido para amarte o dejarte ir
Con tu dinero tu puedes comprar
Lo que tu quieras a mi me da exactamente igual
No me importa mas nada de ti
Dare una vuelta por todo el pais
En un tren azul
Con tu dinero tu puedes comprar
Lo que tu quieras a mi me da exactamente igual
No me importa mas nada de ti
Dare una vuelta por todo el pais
En un tren azul
Azul, nena, azul
Azul nena
Es tren azul
Tren azul, tren azul
Voy viajando en un tren azul.

Nota: Como notaran la estructura se repite siempre porque es una
base de blues, salvo esos yeites que hace al terminar cada
vuelta en Si. Les puse para tocar el Mi y el La por la mitad del
bajo porque siempre pisan la misma cuerda, siendo asi (para mi entender)
mas facil de tocar. Escuchen el tema para guiarse bien.

Mientras su musica se siga tocando y escuchando el carpo jamas morira,
vivira eternamente en la memoria de todos...
e-mail: zarathustra4321@
Suggest correction
Creating personal tab
Creating personal tab
You can edit any tab online and save it as your Personal.

You can edit, replace or remove any tab part or add personal notes – all changes will be seen only by you.

Personal tabs can be accessed anytime from any device, even offline.
Learn more »
Give kudos to tab author, rate the tab!
1 2 3 4 5
comments
print report bad tab
guest
Wanna post a correction for this tab? Suggest correction