Oops, an error
Loading. Please wait.

Triple 6 bass

by Pappo
51 views 1 this week
no commentswrite comment
1 2 3 4 5
3 more votes to show rating
add to favorites
×
Save as Personal and add changes to this tab that will be seen only by you. Learn more ›
×
You can save this tab as Personal to edit and correct it or add notes. All changes will be seen only by you. Learn more »
launch autoscroll
font size
0
reset
guitar tuner
edit
Autoscroll
slow
fast
+/-
esc
set tempo
stop
              (4 vueltas)
G|---------------------------------------|
D|---------------------------------------|
A|------1--3--1-----------1-----------3--|
E|-3-3-----------3-3-3-3-3---3-3-3-3-3---|

?Al lograr tu embriagadez?                                 \
G|-------------------------                                |
D|-------------------------                                |
A|-------------3-3---0|1-1-                                |
E|-3-3--0|1-1--------------                                |
                                                           | Parte
               (2 vueltas)                                 |   A
  ?eso te puso bien?                                       |
G|---------------------------------------|---------------  |
D|---------------------------------------|---------------  |
A|------1--3--1-----------1-----------3--|-------1--3--1-  |
E|-3-3-----------3-3-3-3-3---3-3-3-3-3---|-3-3-----------  |
                                                           /
Repite parte A. Despues:

           (3 vueltas)
?nada de futuro hay en tu vida?
G|---------------------------------|---------------------------------
D|-----------------2-2-2-2-2-2-2-2-|---------------------------------
A|-0-0-0-0-2-2-2-2-----------------|-0-0-0-0-2-2-2-2-----------------
E|---------------------------------|-----------------0-0-0-0-0-0-0-0-

(durante el solo de guitarra)
               (4 vueltas)
G|---------------------------------------|
D|---------------------------------------|
A|----------1-----------3-------1--3--1--|
E|-3-3-3-3-3---3-3-3-3-3---3-3-----------|

G|------------------------------------------------------------------
D|-----------------2-2-2-2-2-2-2-2----------------------------------
A|-0-0-0-0-2-2-2-2------------------0-0-0-0-2-2-2-2-----------------
E|------------------------------------------------------------------

              (2 vueltas)
G|---------------------------------------|
D|---------------------------------------|
A|------1--3--1-----------1-----------3--|
E|-3-3-----------3-3-3-3-3---3-3-3-3-3---|

?para salir de tu mediocridad?
G|-------------------------
D|-------------------------
A|-------------3-3---0|1-1-
E|-3-3--0|1-1--------------

               (5 vueltas)
  ?un contrato con el triple 6?
G|---------------------------------------|
D|---------------------------------------|
A|------1--3--1-----------1-----------3--|
E|-3-3-----------3-3-3-3-3---3-3-3-3-3---|

Final
   (3 veces)
G|-------------|--------------------------------------
D|-------------|--------------------------------------
A|----------1--|------1-------1-----------------------
E|-3-3-3-3-3---|-3-3-3---3-3-3---3-3-3-1--------------

 x |x : tocar las dos notas consecutivamente rápido por Ej. 0|1


Triple 6 (Pappo)

Al lograr tu embriagadez
De lugar en lugar
Eso te puso bien!!
Para salir de tu mediocridad
Tuviste que firmar,
Un contrato con el triple seis!
Ya no hay futuro en tu vida
Todo se echo a perder
Para salir de tu mediocridad
Tuviste que firmar,
Un contrato con el triple seis!
Triple seis!
Triple seis!


Mientras su musica se siga tocando y escuchando el carpo jamas morira,
vivira eternamente en la memoria de todos.
Suggest correction
Creating personal tab
Creating personal tab
You can edit any tab online and save it as your Personal.

You can edit, replace or remove any tab part or add personal notes – all changes will be seen only by you.

Personal tabs can be accessed anytime from any device, even offline.
Learn more »
Give kudos to tab author, rate the tab!
1 2 3 4 5
comments
print report bad tab
guest
Wanna post a correction for this tab? Suggest correction