Oops, an error
Loading. Please wait.

Triple 6 tab

by Pappo
54 views 1 this week
no commentswrite comment
1 2 3 4 5
3 more votes to show rating
add to favorites
×
Save as Personal and add changes to this tab that will be seen only by you. Learn more ›
×
You can save this tab as Personal to edit and correct it or add notes. All changes will be seen only by you. Learn more »
launch autoscroll
font size
0
reset
how to read this tab
guitar tuner
edit
Autoscroll
slow
fast
+/-
esc
set tempo
stop
INTRO
Riff1 x4

Con Riff2
Al lograr tu embriagadez
de lugar en lugar,

Con Riff1
eso te puso bien!

Riff1

Con Riff2
Para salir de tu mediocridad
tuviste que firmar

Con Riff1
un contrato con el triple seis!
Con Riff1
Triple seis!

Riff1 x2

Con Riff3
Ya no hay futuro en tu vida,
Con Riff3
todo se echó a perder.

Riff4 x2

SOLO
Riff1 x4
Riff4 x2
(Aca sigue el solo pero sin bajo)

Riff1 x4

Con Riff2
Para salir de tu mediocridad
tuviste que firmar

Con Riff1
un contrato con el triple seis!
Con Riff1
Triple seis!
Con Riff1
Seis!, triple seis!

Riff1
(silencio)

Riff5

FINAL: en el final no se entiendo mucho lo que hace,
parece puro ruido y algunos arreglos, supongo que es
pura improvisacion..

Riff1
e|-----------------------------|
B|-----------------------------|
G|------3-5-3--------3-------5-|
D|-5-5--3-5-3--55555-3-33333-5-|
A|-5-5--1-3-1--55555-1-55555-3-|
E|-3-3---------33333---33333---|

Riff2
e|--------------------------|
B|--------------------------|
G|---------------5-5----3-3-|
D|-5-5----3-3----5-5----3-3-|
A|-5-5----3-3--0h3-3--0h1-1-|
E|-3-3--0h1-1---------------|

Riff3
e|-------------------------------|
B|-------------------------------|
G|-2---4-------------------------|
D|-2---4--2222-5-4-2--2222-5-4-2-|
A|-0---2-------------------------|
E|-------------------------------|

Riff4
e|-----------------------|
B|-5~-5-7-8-7~-7-8-10-8~-|
G|-----------------------|
D|-----------------------|
A|-----------------------|
E|-----------------------|

Riff5
e|-----------------------------------|
B|-----------------------------------|
G|-----------------------------------|
D|-55555-8-55555-8-555-8-555-8-555-3-|
A|-55555-8-55555-8-555-8-555-8-555-3-|
E|-33333-6-33333-6-333-6-333-6-333-1-|

            
            
Suggest correction
Creating personal tab
Creating personal tab
You can edit any tab online and save it as your Personal.

You can edit, replace or remove any tab part or add personal notes – all changes will be seen only by you.

Personal tabs can be accessed anytime from any device, even offline.
Learn more »
Give kudos to tab author, rate the tab!
1 2 3 4 5
comments
print report bad tab
guest
Wanna post a correction for this tab? Suggest correction