Oops, an error
Loading. Please wait.

Tumba tab

by Pappo
29 views 3 this week
no commentswrite comment
1 2 3 4 5
3 more votes to show rating
add to favorites
×
Save as Personal and add changes to this tab that will be seen only by you. Learn more ›
×
You can save this tab as Personal to edit and correct it or add notes. All changes will be seen only by you. Learn more »
launch autoscroll
font size
0
reset
how to read this tab
guitar tuner
edit
Autoscroll
slow
fast
+/-
esc
set tempo
stop
 Riff Em
 Riff Am
      Es que mi historia
            Em
 espera por mí,
 C              B#79
 pero pienso quedarme
                Bm
 en el mundo de Lis

 Riff Em 
 A veces pienso,
                Riff Am
 las cosas pasan, 
 y sin que mi memoria
               Riff Em
 las pueda esperar

 C                   B#79  
   Tendré que ser historia
               Riff Bm  
 y dejar de pensar

 
 Riff Em                     x2
 1|--------------------------------|
  |--------------------------------|
  |--------------4-----2-----------|
  |--2--2--5--4-----5-----0--1-----|
  |--------------------------------|
 6|--------------------------------|

 Riff Am                    x2
 1|---------------------------------|
  |--------------5-----3------------|
  |--2--2--5--4-----5-----0--1------|
  |---------------------------------|
  |---------------------------------|
 6|---------------------------------|

 Riff Bm                    x2
 1|---------------------------------|
  |---------------------------------|
  |---------------------------------|
  |--------------4-----2------------|
  |--2--2--5--4-----5----0--1-------|
 6|---------------------------------|
  
 B#79
 x         x
 ------------
 | | 0 | | |
 ------------
 | 0 | 0 | |
 ------------
 | | | | 0 |
 ------------
 | | | | | |

            
            
Suggest correction
Creating personal tab
Creating personal tab
You can edit any tab online and save it as your Personal.

You can edit, replace or remove any tab part or add personal notes – all changes will be seen only by you.

Personal tabs can be accessed anytime from any device, even offline.
Learn more »
Give kudos to tab author, rate the tab!
1 2 3 4 5
comments
print report bad tab
guest
Wanna post a correction for this tab? Suggest correction