Oops, an error
Loading. Please wait.

Vine Cruzando El Mar bass

by Pappo
22 views 1 this week
no commentswrite comment
1 2 3 4 5
3 more votes to show rating
add to favorites
×
Save as Personal and add changes to this tab that will be seen only by you. Learn more ›
×
You can save this tab as Personal to edit and correct it or add notes. All changes will be seen only by you. Learn more »
launch autoscroll
font size
0
reset
guitar tuner
edit
Autoscroll
slow
fast
+/-
esc
set tempo
stop
Esta transcripcion esta hecha del disco de album ?Aeroblus? (1976)
La afinación del bajo en este tema y en todo el disco es un poco mas grave
de la comun(440).

G|-----------------------------------------------------------------------|
D|-----------------------------------------------------------------------|
A|-----------------------------------------------------------------------|
E|-5-5-5-5-5-5-5-3/5|5-5-5-5-5-5-5-5-5-5-5-5-5-5-5-3/5|5---5---5---5--5-5|
0:10
G|-------------------------------------------------------------------------
D|-------------------------------------------------------------------------
A|-------------------------------------------------------------------------
E|-5-5-5-5-5-5-5-3/5|5-5-5-5-5-5-5-5-5-5-5-5-5-5-5-3/5|5---5---5---5--5-3-4
                                    ?Voy caminando voy, muy contento??
             (2 vueltas)                        (4 vueltas)
G|----------------------------------|----------------------------------|
D|----------------------------------|----------------------------------|
A|-----------------------------4/5--|-----------------------------4/5--|
E|-5-5--4--3-3--4--5-5--4--3-3------|-5-5--4--3-3--4--5-5--4--3-3------|
  ?Encontrare      un alfiler    que servira      lanzado para luchar?
G|-----------------------------------------------------------------|
D|-----------------------------------------------------------------|
A|-----------------------------------------------------------------|
E|-2-------1-1-1-1-2-------1-1-1-1-2-------1-1-1-1-0---------------|
                                    ?Voy caminando voy, muy contento??
             (2 vueltas)                        (4 vueltas)
G|----------------------------------|----------------------------------|
D|----------------------------------|----------------------------------|
A|-----------------------------4/5--|-----------------------------4/5--|
E|-5-5--4--3-3--4--5-5--4--3-3------|-5-5--4--3-3--4--5-5--4--3-3------|

G|-----------------------------------------------------------------|
D|-----------------------------------------------------------------|
A|-----------------------------------------------------------------|
E|-2-------1-1-1-1-2-------1-1-1-1-2-------1-1-1-1-0---------------|
                                    ?Voy caminando voy, muy contento??
             (2 vueltas)                        (4 vueltas)
G|----------------------------------|----------------------------------|
D|----------------------------------|----------------------------------|
A|-----------------------------4/5--|-----------------------------4/5--|
E|-5-5--4--3-3--4--5-5--4--3-3------|-5-5--4--3-3--4--5-5--4--3-3------|
  ?Encontrare      un alfiler    que servira      lanzado para luchar?
G|-----------------------------------------------------------------|
D|-----------------------------------------------------------------|
A|-----------------------------------------------------------------|
E|-2-------1-1-1-1-2-------1-1-1-1-2-------1-1-1-1-0---------------|
                                    ?Si para luchar, hay que luchar??
             (2 vueltas)               (3 vueltas)
G|----------------------------------|-----------------|
D|----------------------------------|-----------------|
A|-----------------------------4/5--|-5---4-----------|
E|-5-5--4--3-3--4--5-5--4--3-3------|---------0-------|

/: slide up
x|x: por ej. 5|5 significa tocar ambos trastes consecutivamente rapido

Vine cruzando el mar (Pappo)

Voy caminando, voy;
muy contento estoy donde estoy.
Vine cruzando el mar;
apenado estoy de no estar en él.
Encontraré, un alfiler;
que servirá de lanza para luchar.

Voy caminando, voy.

Voy caminando, voy;
muy contento estoy donde estoy.
Vine cruzando el mar;
apenado estoy de no estar en él.
Encontraré, un alfiler;
que servirá de lanza para luchar.

Si, para luchar,
hay que luchar para ganar,
oh, oh, oh.

Mientras su musica se siga tocando y escuchando el carpo jamas morira,
vivira eternamente en la memoria de todos...
e-mail: zarathustra4321@

            
            
Suggest correction
Creating personal tab
Creating personal tab
You can edit any tab online and save it as your Personal.

You can edit, replace or remove any tab part or add personal notes – all changes will be seen only by you.

Personal tabs can be accessed anytime from any device, even offline.
Learn more »
Give kudos to tab author, rate the tab!
1 2 3 4 5
comments
print report bad tab
guest
Wanna post a correction for this tab? Suggest correction