Oops, an error
Loading. Please wait.

Corcel De Acero bass

44 views 1 this week
no commentswrite comment
1 2 3 4 5
3 more votes to show rating
add to favorites
×
Save as Personal and add changes to this tab that will be seen only by you. Learn more ›
×
You can save this tab as Personal to edit and correct it or add notes. All changes will be seen only by you. Learn more »
launch autoscroll
font size
0
reset
guitar tuner
edit
Autoscroll
slow
fast
+/-
esc
set tempo
stop
0:08
G|-----------------------
D|-----------------------
A|-2---------------------
E|-----------------------

                  (2 veces)
G|---------------------------------------------|
D|---------------------------------------------| Parte
A|-2------5-5--0-0-------------2-2--0-0--5-4-0-|   A
E|----------------------3----------------------|

                  (4 veces)
       ?Si te subes a mi corcel de acero?
G|---------------------------------------------|
D|---------------------------------------------| Parte
A|-2----------0--------------------------5-4-0-|   B
E|-----------------------3------3-4-5----------|

Repite parte A, B, A. Despues:

1:57
                      (2 veces)
G|------------------------------------------------------|
D|------------------------------------------------------|
A|------------------------------------------------------|
E|-2h3-3-3-3--3--2h3-3-3-3--3--2h3-3-3-3--5-5--5-5--5--5|

Repite parte A (13 veces). Despues:

3:44
G|----------------------------------------------
D|----------------------------------------------
A|-2------5-5--0-0--0--0------------------------
E|------------------------3---------------------

Repite parte B (8 veces), A (9 veces). Despues:

G|----------------------------------------------
D|----------------------------------------------
A|-2------5-5--0-0--0--0------------------------
E|------------------------3---------------------

Final
G|---------------------6------------------6---3--------------------------------
D|-----------------------6----------------------3------------------------------
A|-0------0--0-0-0--0------7-6--4---4-6-7---------5-4---0----------------------
E|-----------------------------------------------------------------------------


Corcel de acero (Pappo)

Si te subes a mi corcel de acero,
jamás te arrepentirás;
con él vamos en busca de tu alma,
seguro la encontrarás;
uh, uh; uh, uh, uh, uh,
rodeando tu mundo interior.

Recordando al fin que el miedo es ficticio,
tenemos que salir de aquí;
usaremos la montaña del Sol,
del valle de tu imaginación;
uh, uh; uh, uh, uh, uh,
a un millón de años atrás.

Entrarás al fin, nos encontraremos,
tendrás otra oportunidad;
para escuchar aquella leyenda,
podrás ver al Dios de metal;
uh, uh; uh, uh, uh, uh,
tendrás otra oportunidad.

En mi corcel de acero...
que habita en la voluntad...
jamás te arrepentirás...
yo estaré luchando por ti...
en un remoto país.


Mientras su musica se siga tocando y escuchando el carpo jamas morira,
vivira eternamente en la memoria de todos.
Suggest correction
Creating personal tab
Creating personal tab
You can edit any tab online and save it as your Personal.

You can edit, replace or remove any tab part or add personal notes – all changes will be seen only by you.

Personal tabs can be accessed anytime from any device, even offline.
Learn more »
Give kudos to tab author, rate the tab!
1 2 3 4 5
comments
print report bad tab
guest
Wanna post a correction for this tab? Suggest correction