Oops, an error
Loading. Please wait.

Egipto bass

35 views 1 this week
no commentswrite comment
1 2 3 4 5
3 more votes to show rating
add to favorites
×
Save as Personal and add changes to this tab that will be seen only by you. Learn more ›
×
You can save this tab as Personal to edit and correct it or add notes. All changes will be seen only by you. Learn more »
launch autoscroll
font size
0
reset
guitar tuner
edit
Autoscroll
slow
fast
+/-
esc
set tempo
stop
                        (2 veces)
G|--------------------------------------------------------|
D|--------------------------------------------------------|
A|-------------------------------------------0------------|
E|-0-------------2-------------0--------------------------|

                            (2 veces)
G|-----------------------------------------------------------------|
D|-----------------------------------------------------------------| Parte
A|-----------------------------------------------------------------|   A
E|-0-0-0-0-0-0-0-0-0-0-0-0-0-0-0-0-0-0-0-0-0-0-0-0-0-0-0-0-0--3--2-|

G|-------------------------------------------------------
D|---------------4---4---------5---5---------------------
A|-------7---7-------------------------------3--0--0--0--
E|-0---0---------------2---2---------3---3-0-------------

G|--------------------------------------------------------------------
D|---------------4---4---------5---5----------------------------------
A|-7---7-------------------------------------3--0--0--0---3--0--0--0--
E|-------0---0---------2---2---------3---3-0--------------------------

G|--------------------------------------------------------------
D|--------------------------------------------------------------
A|-2-2-2-2-2-2-2-2-2-2-2-2-2-2-2-2-2-2-2-2-2-2-2-----0-0-0-5----
E|------------------------------------------------3-----------2-

G|--------------------------------------------------------------
D|------------------------------------------------------------4-
A|-2-2-2-2-2-2-2-2-2-2-2-2-2-2-2-2-2-2-2-2-2-2-2-----0-0-0-5----
E|------------------------------------------------3-------------

G|--------------------------------------------------------------
D|--------------------------------------------------------------
A|-2-2-2-2-2-2-2-2-2-2-2-2-2-2-2-2-2-2-2-2-2-2-2-----0-0-0-5--4-
E|------------------------------------------------3-------------

           (3 veces)                                   \
G|----------------------------|                        |
D|----------------------------|                        |
A|-----------5--2--2-2-2-5--4-|                        |
E|-2-2-2-2-2------------------|                        | Parte
                                                       |   B
G|------------------------------------------------     |
D|------------------------------------------------     |
A|-----------5--0--0-0-0-0-0-0-0-0-0-0-0-0-0-0-0-0     |
E|-2-2-2-2-2--------------------------------------     /

? Dos expertos viajeros, en una antigua ciudad?
G|--------------------------------------------------------------
D|------------------------------------------------------------4-
A|-2-2-2-2-2-2-2-2-2-2-2-2-2-2-2-2-2-2-2-2-2-2-2-----0-0-0-5----
E|------------------------------------------------3-------------

?dejaron un mensaje, sobre la tempestad neutral?
G|--------------------------------------------------------------
D|--------------------------------------------------------------
A|-2-2-2-2-2-2-2-2-2-2-2-2-2-2-2-2-2-2-2-2-2-2-2-----0-0-0-5----
E|------------------------------------------------3-----------2-

?aquellos manuscritos, les dije ahí que vos?
G|--------------------------------------------------------------
D|--------------------------------------------------------------
A|-2-2-2-2-2-2-2-2-2-2-2-2-2-2-2-2-2-2-2-2-2-2-2-----0-0-0-5--4-
E|------------------------------------------------3-------------

Repite parte B, A,

G|-------------------------------------------------------
D|---------------4---4---------5---5---------------------
A|-------7---7-------------------------------3--0--0--0--
E|-0---0---------------2---2---------3---3---------------

G|-------------------------------------------------------
D|---------------4---4---------5---5---------------------
A|-7---7-------------------------------------3--0--0--0--
E|-------0---0---------2---2---------3---3---------------

G|-------------------------------------------------------
D|---------------4---4---------5---5---------------------
A|-7---7-------------------------------------3--0--0--0--
E|-------0---0---------2---2---------3---3---------------

G|--------------------------------------------------------------------
D|---------------4---4---------5---5----------------------------------
A|-7---7-------------------------------------3--0--0--0---3--0--0--0--
E|-------0---0---------2---2---------3---3----------------------------

?a traves de los tiempos, alguna vez se vio?
G|--------------------------------------------------------------
D|------------------------------------------------------------4-
A|-2-2-2-2-2-2-2-2-2-2-2-2-2-2-2-2-2-2-2-2-2-2-2-----0-0-0-5----
E|------------------------------------------------3-------------

?en los acantilados, una proposicion?
G|--------------------------------------------------------------
D|------------------------------------------------------------4-
A|-2-2-2-2-2-2-2-2-2-2-2-2-2-2-2-2-2-2-2-2-2-2-2-----0-0-0-5----
E|------------------------------------------------3-------------

?en una estela de fuego, en el extraño lugar?
G|--------------------------------------------------------------
D|--------------------------------------------------------------
A|-2-2-2-2-2-2-2-2-2-2-2-2-2-2-2-2-2-2-2-2-2-2-2-----0-0-0-5--4-
E|------------------------------------------------3-------------

           (3 veces)
G|----------------------------|
D|----------------------------|
A|-----------5--2--2-2-2-5--4-|
E|-2-2-2-2-2------------------|

G|--------------------------------------------------------------------------
D|--------------------------------------------------------------------------
A|-----------5--0--0-0-0-0-2--0--0-0-0-0-2--0--0-0-0-0-2--0--0-0-0-0-2------
E|-2-2-2-2-2----------------------------------------------------------------


Egipto (Boff-Pappo)

Dos expertos viajeros,
en una antigua ciudad,
dejaron un mensaje,
sobre la tempestad neutral.

Aquellos manuscritos,
les dije ahí que vos;
sobre esas construcciones;
sus trampas mortales.

A través de los tiempos,
alguna vez se vio,
en los acantilados,
una proposición.

En una estela de fuego,
en el extraño lugar;
desaparecieron;
misteriosamente.

Mientras su musica se siga tocando y escuchando el carpo jamas morira,
vivira eternamente en la memoria de todos.

            
            
Suggest correction
Creating personal tab
Creating personal tab
You can edit any tab online and save it as your Personal.

You can edit, replace or remove any tab part or add personal notes – all changes will be seen only by you.

Personal tabs can be accessed anytime from any device, even offline.
Learn more »
Give kudos to tab author, rate the tab!
1 2 3 4 5
comments
print report bad tab
guest
Wanna post a correction for this tab? Suggest correction