Oops, an error
Loading. Please wait.

Gas Oil bass

15 views 1 this week
no commentswrite comment
1 2 3 4 5
3 more votes to show rating
add to favorites
×
Save as Personal and add changes to this tab that will be seen only by you. Learn more ›
×
You can save this tab as Personal to edit and correct it or add notes. All changes will be seen only by you. Learn more »
launch autoscroll
font size
0
reset
guitar tuner
edit
Autoscroll
slow
fast
+/-
esc
set tempo
stop
0:08
        (2 veces)                   (2 veces)
G|----------------------|--------------------------------|
D|-----7----------------|--------------------------------|
A|-5-----4-----3--------|-5-5-5-4-4-4-4-4-3-3-3-3--------|
E|------------------3---|-------------------------3-3-3-3|

G|---------------------------------                    \
D|---------------------------------                    |
A|-2-2-2-2-2-2-2-2-2-2-2-2-2-2-2-2/                    |
E|---------------------------------                    | Parte
                                                       |   A
G|------------------------------------------------     |
D|------------------------------------------------     |
A|-14-14-14-14-14-14-14-14-14-14-14-14-14-14-14-14     |
E|------------------------------------------------     /

                           (4 veces)                               \
          ?Yo era el septimo hijo de una segunda madre?            |
G|--------------------------------------------------------------|  |
D|-----------------------------------------------------5-5---5-5|  |
A|-7-7-7-7-7-7-7-7-7-7-7-7-7-7-7-7-7-7-7-7-7-7-7-7-7-7----------|  |
E|--------------------------------------------------------------|  |
                                                                   |
           (4 veces)                                               |
 ?y la estructura ante el tiempo?                                  |
G|-----------------------------|                                   |Parte
D|-----------------------------|                                   |  B
A|-3-3-3-3-3-2-------5----5--5-|                                   |
E|-------------5-3------3------|                                   |
                                                                   |
          (4 veces)                                                |
G|---------------------------|                                     |
D|---------------------------|                                     |
A|-5-5-5-4--4-4--3-3-3-------|                                     |
E|----------------------3--3-|                                     /

Repite parte A. Despues:

G|--------------|
D|--------------| Parte
A|---5--5-5--5-5|   C
E|-0------------|

Repite parte B, A, C. Despues:

                           (4 veces)
            ?seguir caminando es lo que voy a hacer?
G|--------------------------------------------------------------|
D|-----------------------------------------------------5-5---5-5|
A|-7-7-7-7-7-7-7-7-7-7-7-7-7-7-7-7-7-7-7-7-7-7-7-7-7-7----------|
E|--------------------------------------------------------------|

    (repite hasta el final)
G|---------------------------|
D|---------------------------|
A|-5-5-5-4--4-4--3-3-3-------|
E|----------------------3--3-|


Gas oil (Boff-Pappo)

Yo era el séptimo hijo de una segunda madre,
nací en el desierto y lo que hacía era mirar la Luna;
hasta que un día decidí viajar a la gran ciudad,
para empezar a comer hamburguesas a la vera de una autopista.

Y la estructura ante el tiempo,
una vez más pidió,
la secuencia correcta,
equilibrio tomó.

Pero ahora el Sol y la Luna parecen iguales,
lo corto, lo largo, todo es igual;
el agua y el fuego, el vino y el whisky,
lo blanco, lo negro, las obras completas de todos los humanos.

Por eso si yo estoy sin ti,
por una razón especial,
no extraño tu presencia,
no me preguntes más.

Seguir caminando es lo que voy a hacer,
hasta llegar allí, dónde estoy yo;
prefiero encontrarme conmigo y tomarme un café,
tomarme un café que no huela a gas oil.


Mientras su musica se siga tocando y escuchando el carpo jamas morira,
vivira eternamente en la memoria de todos.

            
            
Suggest correction
Creating personal tab
Creating personal tab
You can edit any tab online and save it as your Personal.

You can edit, replace or remove any tab part or add personal notes – all changes will be seen only by you.

Personal tabs can be accessed anytime from any device, even offline.
Learn more »
Give kudos to tab author, rate the tab!
1 2 3 4 5
comments
print report bad tab
guest
Wanna post a correction for this tab? Suggest correction