Oops, an error
Loading. Please wait.

Barakaldo tab

68 views 1 this week
no commentswrite comment
1 2 3 4 5
3 more votes to show rating
add to favorites
×
Save as Personal and add changes to this tab that will be seen only by you. Learn more ›
×
You can save this tab as Personal to edit and correct it or add notes. All changes will be seen only by you. Learn more »
launch autoscroll
font size
0
reset
how to read this tab
guitar tuner
edit
Autoscroll
slow
fast
+/-
esc
set tempo
stop
Intro mientras suena el riff:
SI5 - SOL5 - LA5 - FA#5 - SI5 - SOL5 - LA5

e|--------------------------------------------------
B|--------------------------------------------------
G|--------------------------------------------------
D|---------5-4-2-------------------5-4-2-2-5-4-2----
A|---2-4-5-------0-2-4-5-4-2-2-4-5------------------
E|--------------------------------------------------

e|--------------------------------------------------
B|--------------------------------------------------
G|--------------------------------------------------
D|---------5-4-2------------------------------------
A|---2-4-5-------0-2-4-5-4-2-2-4-5---0-2-0----------
E|---------------------------------3----------------

RE5
Barakaldo, Nueva York, Londres,
                 FA#5
Vallecas, Bilbo, Agunsa, San Vicente o el Bronx.
RE5
Soy feliz en mi ciudad,
                   FA#5
Aquí poseo todo lo que siempre te quise dar.
SOL5           LA5    SI5
Frente a mi hogar una verde alfombra de Lindane
SOL5     LA5    RE5
Olor amargo y tropical.
SOL5      LA5          SI5                  SOL5
Detrás de mi todo un vertedero a tu disposición.

Un golpe por nota:
SOL5 - LA5 - SI5 - LA5 - SI5 - DO#5

e|-----------------
B|-----------------
G|-----------------
D|-----------------
A|------0-2-0-2-4--
E|----3------------

Mientras suena el riff:
SI5 - SOL5 - LA5 - FA#5 - SI5 - SOL5 - LA5

e|--------------------------------------------------
B|--------------------------------------------------
G|--------------------------------------------------
D|---------5-4-2-------------------5-4-2-2-5-4-2----
A|---2-4-5-------0-2-4-5-4-2-2-4-5------------------
E|--------------------------------------------------

e|--------------------------------------------------
B|--------------------------------------------------
G|--------------------------------------------------
D|---------5-4-2------------------------------------
A|---2-4-5-------0-2-4-5-4-2-2-4-5---0-2-0----------
E|---------------------------------3----------------

RE5
Si vienes a mi país te haré muy feliz
          FA#5
Bailando entre las ruinas del infierno
RE5
Y aunque soy un roedor me protegen bloques
        FA#5
Me protegen bloques de cemento.

SOL5           LA5    SI5
Te seguiré siempre a golpe de mandíbula
SOL5     LA5    RE5
Y nuestros niños jugaran
SOL5      LA5          SI5              SOL5
Siempre detrás de la línea que marca la zona,
SOL5     LA5    SI5
Hogar, hogar, Mi dulce hogar.....

Mientras toca el riff: Sol5 - Re5
e|--------------------------------------------------
B|---7-5-3-2-3-5-7-5-3-2-3-5-7-8-7-10-7-8-7-10------
G|--------------------------------------------------
D|--------------------------------------------------
A|--------------------------------------------------
E|--------------------------------------------------

e|--------------------------------------------------
B|---7-5-3-2-3-5-7-5-3-2-3-5-7-8-7-10-7-8-7-10------
G|--------------------------------------------------
D|--------------------------------------------------
A|--------------------------------------------------
E|--------------------------------------------------

SOL5           LA5    SI5
Te seguiré siempre a golpe de mandíbula
SOL5     LA5    RE5
Y nuestros niños jugaran
SOL5      LA5          SI5              SOL5
Siempre detrás de la línea que marca la zona,
SOL5     LA5    SI5
Hogar, hogar, Mi dulce hogar.....

            
            
Suggest correction
Creating personal tab
Creating personal tab
You can edit any tab online and save it as your Personal.

You can edit, replace or remove any tab part or add personal notes – all changes will be seen only by you.

Personal tabs can be accessed anytime from any device, even offline.
Learn more »
Give kudos to tab author, rate the tab!
1 2 3 4 5
comments
print report bad tab
guest
Wanna post a correction for this tab? Suggest correction