Oops, an error
Loading. Please wait.

What I Know Tab

7,690 views 6 this week
no commentswrite comment
1 2 3 4 5
accurate
x 5
add to favorites
launch autoscroll
font size
0
reset
how to read this tab
guitar tuner
Autoscroll
slow
fast
+/-
esc
set tempo
stop
Help us to improve Ultimate-Guitar.com Take our survey!
×
Author
Difficulty
Capo
novice
4th fret
Got a request to tab this song and heard once I heard it, I actually liked it. Thank you 
Tyler Clonts for introducing it to me!

Band: Parachute
Song: What I know
Tabbed by: Scott Naylor

Tunning: D A D G B e (Capo on 4th fret)


Intro

e||------------------------------------|
B||------------------------------------|
G||-7-7-7-7-7-7-7-7-7-7-7-7-7-7-7-7----|
D||-7-7-7-7-7-7-7-7-7-7-7-7-7-7-7-7----|
A||-5-5-5-5-5-5-5-5-5-5-5-5-5-5-5-5----|
D||------------------------------------|


Verse 1

e||---------------------------------0-0-0-0-0-0-0-0--------------------|
B||---------------------------------3-3-3-3-3-3-3-3--------------------|
G||-7-7-7-7-7-7-7-7-6-6-6-6-6-6-6-6-2-2-2-2-2-2-2-2-7-7-7-7-7-7-7-7----|
D||-7-7-7-7-7-7-7-7-7-7-7-7-7-7-7-7-4-4-4-4-4-4-2-2-7-7-7-7-7-7-7-7----| x2
A||-5-5-5-5-5-5-5-5-5-5-5-5-5-5-5-5-2-2-2-2-2-2-0-0-5-5-5-5-5-5-5-5----|
D||--------------------------------------------------------------------|


Pre-Chorus

e||-0-0-0-0-0-0-0-0-0-0-0-0-0-0-0-0----|
B||-0-0-0-0-0-0-0-0-3-3-3-3-3-3-3-3----|
G||-7-7-7-7-7-7-7-7-2-2-2-2-2-2-2-2----|
D||-7-7-7-7-7-7-7-7-2-2-2-2-2-2-2-2----|
A||-x-x-x-x-x-x-x-x-0-0-0-0-0-0-0-0----|
D||-5-5-5-5-5-5-5-5--------------------|


Chorus

e||-2-2-2-2-2-2-2-2-2-2-2-2-2-2-2-2----|
B||-3-3-3-3-3-3-3-3-3-3-3-3-3-3-3-3----|
G||-2-2-2-2-0-0-0-0-2-2-2-2-0-0-0-0----|
D||-0-0-0-0-x-x-x-x-0-0-0-0-x-x-x-x----|
A||---------2-2-2-2---------2-2-2-2----|
D||------------------------------------|


Intro x1


Verse 2

e||-2-2-2-2-0-2-3-3-2-2-2-2-2-2-2-2-0-0-0-0-0-0-0-0-2-2-2-2-2-2-2-2----|
B||-3-3-3-3-3-3-3-3-3-3-3-3-2-2-2-2-3-3-3-3-3-3-3-3-3-3-3-3-3-3-3-3----|
G||-2-2-2-2-2-2-2-2-2-2-2-2-2-2-2-2-2-2-2-2-2-2-2-2-2-2-2-2-2-2-2-2----|
D||-0-0-0-0-0-0-0-0-0-0-0-0-0-0-0-0-4-4-4-4-4-4-2-2-0-0-0-0-0-0-0-0----|
A||---------------------------------2-2-2-2-2-2-0-0---------4-4-4-4----|
D||--------------------------------------------------------------------|

e||-0-0-0-0-0-0-0-0-0-0-0-0-0-0-0-0-5-5-5-5-5-5-5-5-2-2-2-2-2-2-2-2----|
B||-3-3-3-3-3-3-3-3-3-3-3-3-3-3-3-3-3-3-3-3-3-3-3-3-3-3-3-3-3-3-3-3----|
G||-2-2-2-2-2-2-2-2-2-2-2-2-2-2-2-2-2-2-2-2-2-2-2-2-2-2-2-2-2-2-2-2----|
D||-4-4-4-4-4-4-4-4-2-2-2-2-2-2-2-2-0-0-0-0-0-0-0-0-0-0-0-0-0-0-0-0----|
A||-2-2-2-2-2-2-2-2-0-0-0-0-0-0-0-0-x-x-x-x-x-x-x-x--------------------|
D||---------------------------------5-5-5-5-5-5-5-5--------------------|


Pre-Chorus

e||-5-5-5-5-5-5-5-5-0-0-0-0-0-0-0-0----|
B||-3-3-3-3-3-3-3-3-3-3-3-3-3-3-3-3----|
G||-2-2-2-2-2-2-2-2-2-2-2-2-2-2-2-2----|
D||-0-0-0-0-0-0-0-0-2-2-2-2-2-2-2-2----|
A||-x-x-x-x-x-x-x-x-0-0-0-0-0-0-0-0----|
D||-5-5-5-5-5-5-5-5--------------------|


Chorus x2


Bridge

e||--------------------------------------------|
B||--------------------------------------------|
G||-----5/7-7-----5/7-7-----5/7-7-----5/7-7----|
D||-0-0-x-x-x-0-0-x-x-x-0-0-x-x-x-0-0-x-x-x----|
A||-0-0-3/5-5-0-0-3/5-5-0-0-3/5-5-0-0-3/5-5----|
D||-0-0-------0-0-------0-0-------0-0----------|

e||----------------------------------------|
B||----------------------------------------|
G||-----5-5-----4-4-----5/7-7-----5/7-7----|
D||-0-0-x-x-0-0-x-x-0-0-x-x-x-0-0-x-x-x----| x2
A||-0-0-3-3-0-0-2-2-0-0-3/5-5-0-0-3/5-5----|
D||-0-0-----0-0-----0-0-------0-0----------|

e||-0-0-0-0-0-0-0-0-2-2--------------------|
B||-3-3-3-3-3-3-3-3-3-3--------------------|
G||-2-2-2-2-2-2-2-2-2-2-5/7-7-----5/7-7----|
D||-4-4-4-4-4-4-2-2-0-0-x/x-x-0-0-x/x-x----| x2
A||-2-2-2-2-2-2-0-0-0-0-3/5-5-0-0-3/5-5----|
D||-----------------0-0-------0-0----------|


Pre-Chorus x1


Chorus

e||-2-2-2-2-5-5-5-5-0-0-0-0-5-5-5-5----|
B||-3-3-3-3-3-3-3-3-3-3-3-3-3-3-3-3----|
G||-2-2-2-2-2-2-2-2-2-2-2-2-2-2-2-2----|
D||-0-0-0-0-0-0-0-0-2-2-2-2-0-0-0-0----|
A||---------x-x-x-x---------x-x-x-x----|
D||---------5-5-5-5---------5-5-5-5----|

e||-2-2-2-2-5-5-5-5-0-0-0-0-2-2-2-2----|
B||-3-3-3-3-3-3-3-3-3-3-3-3-3-3-3-3----|
G||-2-2-2-2-2-2-2-2-2-2-2-2-0-0-0-0----|
D||-0-0-0-0-0-0-0-0-2-2-2-2-x-x-x-x----|
A||---------x-x-x-x---------2-2-2-2----|
D||---------5-5-5-5--------------------|

e||-2-2-2-2-2-2-2-2-0-0-0-0-2-2-2-2----|
B||-3-3-3-3-3-3-3-3-1-1-1-1-3-3-3-3----|
G||-2-2-2-2-0-0-0-0-0-0-0-0-0-0-0-0----|
D||-0-0-0-0-x-x-x-x-2-2-2-2-x-x-x-x----| x2
A||---------2-2-2-2-3-3-3-3-2-2-2-2----|
D||------------------------------------|


   x - mute note
   / - slide up
Suggest correction
comments
print report bad tab
guest
You may want to rate the tab now too:
select rating
Wanna post a correction for this tab? Suggest correction