Oops, an error
Loading. Please wait.

Elusive Cure Tab

version 1
version 1

Whole song

Interactive

1,071 views 1 this week
2 commentsread comments
1 2 3 4 5
please rate
add to favorites
launch autoscroll
font size
0
reset
how to read this tab
guitar tuner
Autoscroll
slow
fast
+/-
esc
set tempo
stop
Help us to improve Ultimate-Guitar.com Take our survey!
×
Author
This is not mine...just adding it to the archive

PARADISE LOST - Elusive cure
album : draconian times
tuning Eb Ab Db Gb Bb eb
|     |:this is the rythm

intro:
eb||--------------------------------------------------------||
Bb||------1-----------0------------0-----0-----0-----0------||
Gb||----2---2-------0---0-----------------------------------||
Db||--2-----------0--------------2-----2-----2-----2--------||
Ab||---------------------------2-----2-----2-----2----------||
Eb||--------------------------------------------------------||
      |     |     |     |     |     |     |     |     |


Chorus:
                             _____________________   ______________________________________
  Guitar1                 1.|                     2.|                                      ||
||--------------------------|-----------------------|--------------------------------------||
||--------------------------|-----------------------|--------------------------------------||
||-----5-----4--------------|-----------------------|--------------------4-----------------||
||--------------7-5------5--|-----5--7--5--4--------|-----5--7--5-4h5p4-----7--5h7p5-4-----||
||--------------------7-----|--7--------------7--7--|--7---------------7-------------------||
||--------------------------|-----------------------|--------------------------------------||
||                          |PM.                    |PM.                                   ||
||     |     |     |     |  |  |     |     |     |  |  |     |     |     |     |     |     ||
||                          |                       |                                      ||
||Guitar2                   |                       |                                      ||
||--------------------------|-----------------------|--------------------------------------||
||--------------------------|-----------------------|--------------------------------------||
||-----5--------------------|--4--------------------|--4-----4-----4-----------------------||
||-----5-----2-----------5--|--4-(let ring)---------|--4-----4-----4-----------------------||
||-----3-----2-----------5--|--2--------------------|--2-----2-----2-----------------------||
||-----------0-----------3--|-----------------------|--------------------------------------||
||     |     |     |     |  |  |     |     |     |  |  |     |     |     |     |     |     ||


Verse:

  Guitar1
||-----------------------------------------------||
||-----------------------------------------------||
||-----4-----------4-----------7/6---------4-----||
||-----------------------------------------------||
||-----------------------------------------------||
||-----------------------------------------------||
||     |     |     |     |     |     |     |     ||
||                                               ||   x2
||Guitar2                                        ||
||-----------------------------------------------||
||-----------------------------------------------||
||-----------------4-----------------------------||
||-----2-----------4-----------7/6---------5-----||
||-----2-----------2-----------7/6---------5-----||
||-----0-----------------------5/4---------3-----||
||     |     |     |     |     |     |     |     ||


then


  Guitar1
||-----------------------------------------------------||
||----5------------5-----------8--7--------5----(7)----||  (7)the second time
||-----------------------------------------------------||
||-----------------------------------------------------||
||-----------------------------------------------------||
||-----------------------------------------------------||
||     |     |     |     |     |     |     |     |     ||
||                                                     ||   x2
||Guitar2                                              ||
||-----------------------------------------------------||
||-----------------------------------------------------||
||-----7---7---7-7-------------9---9---9-9-------------||
||-----7---7---7-7-7---7---7-7-9---9---9-9-9---9---9-9-||
||-----5---5---5-5-7---7---7-7-7---7---7-7-9---9---9-9-||
||-----------------5---5---5-5-------------7---7---7-7-||
||     |     |     |     |     |     |     |     |     ||

Rythm guitar during the solo:rythm of the chorus then at the end   Gb-----
                                                                   Db--2--
                                                                   Ab--2--
                                                                   Eb--0--
song structure
intro  x 2
chorus x 1
verse  x 1
intro  x 2
chorus x 1
verse  x 1
intro  x 2
chorus x 1
solo
pmagnier@minitel.net
Suggest correction
What's this?
You can suggest a correction to this tab. Community and Mods will review your correction and vote to approve or reject it.
comments
We did not receive enough feedback on this tab! Please rate:
print report bad tab
1 2 3 4 5
2 comments total.
0 reply
Kirkiscool 2,759 wrote on July 15 2015, 06:53 pm, edited at 06:54 pm

and tuning is DGCFAd as on wohle album

0 reply
Kirkiscool 2,759 wrote on July 15 2015, 06:56 pm

Outro Guitar solo:

e|----------------------------------------------------------------------|
B|--------13-13--------13-13-------13-13-------13-13-------13-13-13-----|
G|--15b17--------15b17-------15b17-------15b17-------15b17--------------|
D|----------------------------------------------------------------------|
A|----------------------------------------------------------------------|
E|----------------------------------------------------------------------|

e|-------13-13-------13-13-------13-------------------------------------|
B|-16b18-------16b18-------16b18------15--------------------------------|
G|------------------------------------15b17r15p13-15-15--13-------------|
D|----------------------------------------------------------15-13-------|
A|----------------------------------------------------------------------|
E|----------------------------------------------------------------------|

e|----------------------------------------------------------------------|
B|-10-------------------------------------------------------------------|
G|-10b12r10p8-10-10--8-------------10-13-13-10-13-13-10-13--------------|
D|---------------------10-8---------------------------------------------|
A|----------------------------------------------------------------------|
E|----------------------------------------------------------------------|

e|-13-16-16-13-16-16-13-16----------------------------13-13-------------|
B|-------------------------------------------13-x3-16-------------------|
G|-------------------------10-x3-13-x3-15-x3----------------------------|
D|-----------------------------------------------------------15v--------|
A|----------------------------------------------------------------------|
E|----------------------------------------------------------------------|

let ring last note

guest
You may want to rate the tab now too:
select rating
Please do not post tabs as comments. Select "correction" instead!