Oops, an error
Loading. Please wait.

Forever After Tab

version 1
version 1

Whole song

Interactive

1,597 views 1 this week
1 commentread comment
1 2 3 4 5
excellent!
x 3
add to favorites
launch autoscroll
font size
0
reset
how to read this tab
guitar tuner
Autoscroll
slow
fast
+/-
esc
set tempo
stop
Help us to improve Ultimate-Guitar.com Take our survey!
×
Author
Gtr tuned to D, with a dropped C
*NB - Notes above stave are indicative of actual note and not where they are played.
      They are also the notes as played by 2nd Guitar

h - hammer on
p - pull off
b - bend string up
r - release bend
/ - slide up
\ - slide down
v - vibrato (sometimes written as ~)
t - right hand tap
x - play 'note' with heavy damping
hm - Harmonic note

Riff 1 Chorus Chords
  F               Ab      Eb      Bb
D--------------------------------------------------|
A--------------------------------------------------|
F---------------------------------5555555555555555-|
C-555555555555555588888888333333335555555555555555
G-555555555555555588888888333333333333333333333333
C-55555555555555558888888833333333----------------

Riff 2 with Lead
  F              (Lead Riff 1)
                  s       s       s      s
D-------------------------------------------------|
A-----------------13-11---13-11---15-13--15-13----|
F----------------------12------12------15-----12--|
C-5555555555555555--------------------------------|
G-5555555555555555--------------------------------|
C-5555555555555555--------------------------------|

Riff 3 Verse Arpeggio
  F                               Eb      Ab      Bb
D----------------------------------------------------------|
A---------10--11----------10--11----------10--11-----------|
F-----12--------------12--------------12--------------12---|
C---12--12--12--12--12--12--12--12--12--12--12--12--12--12-|
G-10--------------10--------------10--------------10-------|
C----------------------------------------------------------|

Riff 4 Bridge
  F       Eb      Ab      Bb      F       Eb       Ab      Bb
D------------------------------------------------------------------|
A------------------------------------------------------------------|
F--------------------3--------------------------------3------------|
C---5---------------5---------------5----------------5-------------|
G--5---------------5---------------5----------------5--------------|
C-5---------------5---------------5----------------5---------------|

Riff 5 Bridge 2
  F       Eb      Ab      Bb     F       Eb      Ab      Bb
                                 s       s       s       s
D------------------------------------------------------------------|
A--------------------------------13-11---13-11---15-13---15-13-----|
F--------------------3----------------12------12------15------12---|
C---5---------------5----------------------------------------------|
G--5---------------5-----------------------------------------------|
C-5---------------5------------------------------------------------|

Riff 6 Chorus Bridge
  F       Eb      Ab      Bb      F       Eb      Ab      Bb
D----------------------------------------------------------------|
A----------------------------------------------------------------|
F----------------------------------------------------------------|
C-555555553333333388888888777777775555555533333333888888887------|
G----------------------------------------------------------------|
C----------------------------------------------------------------|

Riff 7 Interlude
  F                                F
                                                  hm¬
D-------------------------------------------------------------------|
A-------------------------------------------------------------------|
F-------------------------------------------------7-5---------------|
C-5--------------------------------5--------------------------------|
G-5--------------------------------5--------------------------------|
C-5--------------------------------5--------------------------------|

Riff 8 Interlude 2
  F       Ab      Eb      Bb              F       Ab      Eb      Bb
  s       s       s       s               s       s       s       s
D---------------------------------------------------------------------------------|
A---------------------------------------------------------------------------------|
F---------------------------------------------------------------------------------|
C---------------------------------------------------------------------------------|
G-------------------------3---------------------------------------3---------------|
C-5-------8-------3-----------------------5-------8-------3-----------------------|

Riff 9 End Chord

D---------|
A---------|
F---------|
C-5-------|
G-5-------|
C-5-------|

Song Layout
Intro (Piano)
Riff 1 Chorus Chords *1
Riff 2 with Lead *1
Verse 1 (no guitar)
Riff 3 Verse Arpeggio *1
Riff 4 Bridge *1
Riff 1 Chorus Chords *1
Riff 3 Verse Arpeggio *1
Riff 5 Bridge 2 *1
Riff 1 Chorus Chords *2
Riff 6 Chorus Bridge *1
Riff 7 Interlude *1
Riff 8 Interlude 2 *1
Riff 1 Chorus Chords *2
Riff 6 Chorus Bridge *1
Riff 9 End Chord
Suggest correction
Give kudos to tab author, rate the tab!
1 2 3 4 5
comments
print report bad tab
1 comment total.
0 reply
tbarrettl 261 wrote on June 21 2007, 02:27 pm

Awesome

guest
You may want to rate the tab now too:
select rating
Please do not post tabs as comments. Select "correction" instead!