Oops, an error
Loading. Please wait.

Honesty In Death Tab

1,061 views 1 this week
no commentswrite comment
1 2 3 4 5
please rate
add to favorites
launch autoscroll
font size
0
reset
how to read this tab
guitar tuner
Autoscroll
slow
fast
+/-
esc
set tempo
stop
Help us to improve Ultimate-Guitar.com Take our survey!
×
Contributor
Difficulty
jgsb2001 913
novice
Band: Paradise Lost
Album: Tragic Idol
Song: Honesty In Death
Tuning: ADGCFAD

=====================================================================================================
Updated June 15, 2015

Notes:
* Intro and Verse Lead fix
* Intro and Verse Rhythm fully tabbed
* Added Chorus Lead
* In the process of tabbing the solo
=====================================================================================================
 

Intro/Chorus
Lead                                         
D|-------------------------9-9-9-----------12^9----------| 
A|-------------------------------12--10---------12^10----| 
F|-11~-11-11~-11-11~-11-11~-------------11~-----------11-| 
C|-------------------------------------------------------| 
G|-------------------------------------------------------| 
D|-------------------------------------------------------| 
A|-------------------------------------------------------| 
Rhythm
D|-------------------------------------------------------| 
A|-------------------------------------------------------| 
F|-------------------------------------------------------|
C|-4--4-4-7/9/11/9-9-9/7-7-(7)-9/11-11-11/7-7-7-7/6-6/4--| 
G|-x--x-x-x-x-x--x-x-x-x-x-(x)-x-x--x--x--x-x-x-x-x-x-x--| 
D|-2--2-2-5/7/9-/7-7-7/5-5-(5)-7/9--9--9-/5-5-5-5/4-4/2--| 
A|-------------------------------------------------------|


Verse
Lead                                   
D|----------------------------------------------------|
A|---7--8--7------------------------------------------|
F|-------------9---7---6^7^6-------7---7----6---6^7^6-|
C|----------------------------------------------------|
G|----------------------------------------------------|
D|----------------------------------------------------|
A|----------------------------------------------------|
Rhythm 
D|----------------------------------------------------|
A|----------------------------------------------------|
F|----------------------------------------------------|
C|----------------------------------------------------|
G|----------------------------------------------------| 
D|-22222222/55555555-5/7/99999999-9/44444444-4/5/4-42-| 
A|-00000000/33333333-3/5/77777777-7/22222222-2/3/2-20-| 


Pre Chorus
Lead Part 1
D|----------14---15---14---12---------------------| 
A|-12-12-12---12---12---12---12-14-12-14^15^14-12-| 
F|------------------------------------------------| 
C|------------------------------------------------| 
G|------------------------------------------------| 
D|------------------------------------------------| 
A|------------------------------------------------| 
Lead Part 2
D|-------------------------------------------| 
A|-12-12-12-15^12-12-14^12-15-12-14-12-------| 
F|-------------------------------------------| 
C|-------------------------------------------| 
G|-------------------------------------------| 
D|-------------------------------------------| 
A|-------------------------------------------| 
Lead Part 3
D|-----------------------------------------| 
A|-----------------------------------------| 
F|-/12~-14-11~-12-9-12ph--9-11-7~-7-9-6~-7-| 
C|-----------------------------------------| 
G|-----------------------------------------| 
D|-----------------------------------------| 
A|-----------------------------------------| 
Rhythm x2
D|-------------------------------------|---------|
A|-------------------------------------|---------|
F|-------------------------------------|---------|
C|-5555-55/4-444-444-------------------|---------|
G|-xxxx-xx/x-xxx-xxx-2222-22-2222-2222-|-2-4-5-7-|
D|-3333-33/2-222-222-xxxx-xx-xxxx-xxxx-|-x-x-x-x-|
A|-------------------0000-00-0000-0000-|-0-2-3-5-|


Chorus
Lead
D|----------------------------------| 
A|----------------------------------| 
F|----------------------------------| 
C|-2~-22—2^4/5-55-5/7/9-99--5-5/4/2-| 
G|----------------------------------| 
D|----------------------------------| 
A|----------------------------------| 
Rhythm 
D|----------------------------------| 
A|----------------------------------| 
F|----------------------------------| 
C|----------------------------------| 
G|-7----10---2----5----7----10---2--| 
D|-x----x----x----x----x----x----x--| 
A|-5----8----0----3----5----8----0--| 


Solo - Rhythm 
Repeat five times with the last time being palm muted 
D| ------------------------| 
A| ------------------------| 
F| ------------------------| 
C| ------------------------| 
G| ------------------------| 
D| --4--7--9--12-///-------| 
A| --2--5--7--10-///-------| 
                 *pick slide 


Outro - Rhythm *pulse - not every chord count is given 
D| ---------------------| 
A| ---------------------| 
F| ---------------------| 
C| ---------------------| 
G| -9----5----2----4----| 
D| -x----x----x----x----| 
A| -7----3----0----2----| 

Outro - Lead 
Same as the Intro
comments
We did not receive enough feedback on this tab! Please rate:
print report bad tab
1 2 3 4 5
I want to post or [tab]
guest
You may want to rate the tab now too:
select rating
Please do not post tabs as comments. Select "correction" instead!